Oops, an error
Loading. Please wait.

End Of The Movie Tab

version 1
version 1

Whole song

  • Most transcriptions of this song do it using open ... Show more

Interactive

20,288 views 12 this week
2 commentsread comments
1 2 3 4 5
x 13
add to favorites
launch autoscroll
font size
0
reset
how to read this tab
guitar tuner
×
Best way to learn
"End Of The Movie"
Autoscroll
slow
fast
+/-
esc
set tempo
stop
"End of the Movie"
CAKE
Tabbed by: Primusfan Davey (w/ help of Gsus6677's tab)

The picking pattern and solo done by ear. Chords taken from Gsus6677's tab.


Picking pattern:
G                         D                           Em                       C
E-------------------------|----2-------2----2-------2|---3-------3---3-------3|---------------------------|
B---3-------3----3-------3|----3-----3------3-----3--|---5-----5-----5-----5--|---1-------1----1-------1--|
G---0-----0------0-----0--|----2---2--------2---2----|---4---4-------4---4----|---0-----0------0-----0----|
D---0---0--------0---0----|--0---0--------0---0------|-2---2-------2---2------|---2---2--------2---2------|
A-------------------------|--------------------------|------------------------|-3---3--------3---3--------|
E-3---3--------3---3------|--------------------------|------------------------|---------------------------|

Intro: G for two measures.

G
People you love
D                    Em
Will turn their backs on you
C                     G
You'll lose your hair
D
Your teeth
Em                              C
Your knife will fall out of its sheath
       G                         D                             G    D
But you still don't like to leave before the end of the movie
G               D             Em              C
People you hate will get their hooks into you
                     G
They'll pull you down
D
You'll frown
Em                                       C
They'll tar you and drag you through town
        G                        D                           G   D
But you still don't like to leave before the end of the movie
        G                       D                          G
No you still don't like to leave before the end of the show

(Pause one measure)
INSTRUMENTAL
G D Em C x3

Accordion Solo:

Did this by ear. I'm almost 100% positive it's right.

E-15-14-12-10-12-10--10-12-10--10-12-10--10-|
B------------------12--------12--------12---|
G-------------------------------------------|
D-------------------------------------------|
A-------------------------------------------|
E-------------------------------------------|

E-15-14-12-10-12-10--------10--------10---------|
B------------------12-10-12--12-10-12--12-10-12-|
G-----------------------------------------------|
D-----------------------------------------------|
A-----------------------------------------------|
E-----------------------------------------------|

E-15-14---17-15---19-17---20-|
B----------------------------|
G----------------------------|
D----------------------------|
A----------------------------|
E----------------------------|

E-15-14-12-10-12-10--10-12-10--10-12-10--10-|
B------------------12--------12--------12---|
G-------------------------------------------|
D-------------------------------------------|
A-------------------------------------------|
E-------------------------------------------|

E-15-14-12-10-12-10--------10--------10---------|
B------------------12-10-12--12-10-12--12-10-12-|
G-----------------------------------------------|
D-----------------------------------------------|
A-----------------------------------------------|
E-----------------------------------------------|


G               D             Em              C
People you hate will get their hooks into you
                     G
They'll pull you down
D
You'll frown
Em                                       C
They'll tar you and drag you through town
        G                        D                           G   D
But you still don't like to leave before the end of the movie
        G                       D                          G
No you still don't like to leave before the end of the show

Th-th-th-th-th-that's all folks.:D
Suggest correction
comments
print report bad tab
2 comments total.
0 reply
Gomander 71 Jan 17, 2005 07:00 PM

Thanks a lot for doing this tab, I love this song and I've been trying to figure it out myself. Learning it will be a good challenge but well worth it.

0 reply
FredP101 10 Nov 11, 2005 06:21 PM

I think the solo is missing a little. i think it is missing:
E---15-14---17-15---19-17---20-------------|
B-12----------------------------------------|
G-------------------------------------------|
D-------------------------------------------|
A-------------------------------------------|
E-------------------------------------------|

E-15-14-12-10-12-10--------10--------10---------|
B------------------12-10-12--12-10-12--12-10-12-|
G-----------------------------------------------|
D-----------------------------------------------|
A-----------------------------------------------|
E-----------------------------------------------|

guest
You may want to rate the tab now too:
select rating
Wanna post a correction for this tab? Suggest correction