Oops, an error
Loading. Please wait.
We have Chord Pro version of Frank Sinatra.
It's the closest thing you can get to the original song and it has interactive parts. Check out the tab »
×
by Cake
5,041 views 1 this week
2 commentsread comments
1 2 3 4 5
2 more votes to show rating
add to favorites
×
Save as Personal and add changes to this tab that will be seen only by you. Learn more ›
×
You can save this tab as Personal to edit and correct it or add notes. All changes will be seen only by you. Learn more »
launch autoscroll
font size
0
reset
how to read this tab
guitar tuner
edit
Autoscroll
slow
fast
+/-
esc
set tempo
stop
Frank Sinatra
Cake
Tabbed by, annoyance

Intro: normally done with an organ

E-----------------------------------------|
B-----------------------------------------|
G-----------------------------------------|
D-------4--------7------------------------|
A--4-44--4--4-44--4--4-444\5---------5-4--|
E---------------------------5--5-55-------|

E-----------------------------------------|
B-----------------------------------------|
G-----------------------------------------|
D---------------7-------------------------|
A-2-0---2-4-4/7----5-----7----------------|
E-----5--------------5--7-----------------|
Suggest correction
Creating personal tab
Creating personal tab
You can edit any tab online and save it as your Personal.

You can edit, replace or remove any tab part or add personal notes – all changes will be seen only by you.

Personal tabs can be accessed anytime from any device, even offline.
Learn more »
Give kudos to tab author, rate the tab!
1 2 3 4 5
comments
print report bad tab
2 comments total.
0 reply
Bradster 10 Feb 03, 2004 07:00 PM

totally wrong

+1 reply
Bradster 10 Feb 03, 2004 07:00 PM

its goes a little more like this


3]---------0-------------------------0-------
4]---2------------------------------0-------4
5]222-2-222-2-222-3----3-2-0-----0-2---2-0-2-
6]-----------------3-333-----3-3-------------

guest
Wanna post a correction for this tab? Suggest correction