Oops, an error
Loading. Please wait.
We have Chord Pro version of Frank Sinatra.
It's the closest thing you can get to the original song and it has interactive parts. Check out the tab »
×
by Cake
3,246 views 3 this week
1 commentread comment
1 2 3 4 5
x 4
add to favorites
×
Save as Personal and add changes to this tab that will be seen only by you. Learn more ›
×
You can save this tab as Personal to edit and correct it or add notes. All changes will be seen only by you. Learn more »
launch autoscroll
font size
0
reset
guitar tuner
edit
Autoscroll
slow
fast
+/-
esc
set tempo
stop
Difficulty
intermediate
The bass intro is this

----------9--------------12----------------0-0-0-----------|
-10-10-10---10--10-10-10----10--10-10-10-11------11-10-8-6-|
-----------------------------------------------------------|
-----------------------------------------------------------|

-------12--------11---------------------------------------|
-6-8-13--10-8-10------------------------------------------|
----------------------------------------------------------|
----------------------------------------------------------|

It's pretty slow and pretty easy, just listen to the song and you will get how it goes.



There is a one verse pause but then the rest of the song is this.

---------------- ------------- ------------- ---|
---------------- ------------- ------------- ---|
--------------3- ------------- -----------2- ---|
-0--0-2-2-3-3--- -0-2-2-3-3-3- -0-2-2-3-3--- -0-|
Suggest correction
Creating personal tab
Creating personal tab
You can edit any tab online and save it as your Personal.

You can edit, replace or remove any tab part or add personal notes – all changes will be seen only by you.

Personal tabs can be accessed anytime from any device, even offline.
Learn more »
comments
print report bad tab
1 comment total.
+1 reply
Stradavus 30 Dec 24, 2006 09:20 AM

Alright, first of all, the intro is played on guitar live and an organ on the album... but if you really wanted to play it on the bass it should look more like this:

|-------9-------------12-------------------------|
|-9-9-9----9----9-9-9-----9----9-9-9-10----------|
|----------------------------------------10------|
|------------------------------------------------|

|--------------------------------12----------11--|
|----------10-9-7-----------9-12-------9-7-9-----|
|-10-10-10--------10-10--12----------------------|
|------------------------------------------------|

guest
Wanna post a correction for this tab? Suggest correction