Oops, an error
Loading. Please wait.

Friend Is A Four Letter Word bass

version 3
version 3

Whole song

Interactive

by Cake
104 views 1 this week
no commentswrite comment
1 2 3 4 5
3 more votes to show rating
add to favorites
×
Save as Personal and add changes to this tab that will be seen only by you. Learn more ›
×
You can save this tab as Personal to edit and correct it or add notes. All changes will be seen only by you. Learn more »
launch autoscroll
font size
0
reset
guitar tuner
edit
Autoscroll
slow
fast
+/-
esc
set tempo
stop
Author
Difficulty
-------------------------------------------------------------------------------
                             Friend Is A Four Letter Word - Cake
-------------------------------------------------------------------------------
Tabbed by: Hans Tvedskov
E-mail: hc3006@hotmail.com

The bass does'nt play until he sings "But to me..."
G|---------------------------------------------------------------------------|
D|---------------------------------------------------------------------------|
A|---------------3----3------------------------------------------------------|
E|--5--3-5-5--------3---3-----1---3---5--------------------------------------|

After the break you play
G|---------------------------------------------------------------------------|
D|---------------------------------------------------------------------------|
A|--------3-------------5----------------------------------------------------|
E|--5---3---------1---3------------------------------------------------------|
When he begins to sing again you play
G|---------------------------------------------------------------------------|
D|---------------------------------------------------------------------------|
A|-----------------3----3----------------------------------------------------|
E|--5--3-5-5----------3---3--------------------------------------------------|
Until he sings "but to me..." then you play
G|---------------------------------------------------------------------------|
D|---------------------------------------------------------------------------|
A|---------------3----3------------------------------------------------------|
E|--5--3-5-5--------3---3-----1---3---5--------------------------------------|
When he sings "When i go fishing..." you play
G|---------------------------------------------------------------------------|
D|---------------------------------------------------------------------------|
A|----------------------1-3-3-----3-5-5--------------------------------------|
E|--0--3-5---0--3-5---1----------3----------5----0---5--3-5-5----------------|
Then you play
G|---------------------------------------------------------------------------|
D|---------------------------------------------------------------------------|
A|--------3-------------5----------------------------------------------------|
E|--5---3---------1---3------------------------------------------------------|
In the end you play this when he sings "friend is a four letter word"
G|---------------------------------------------------------------------------|
D|---------------------------------------------------------------------------|
A|---------------------------------------------------------------------------|
E|--1----3----5--------------------------------------------------------------|




| /  slide up
| \  slide down
| h  hammer-on
| p  pull-off
| ~  vibrato
| +  harmonic
| x  Mute note
===============================================================================

            
            
Suggest correction
Creating personal tab
Creating personal tab
You can edit any tab online and save it as your Personal.

You can edit, replace or remove any tab part or add personal notes – all changes will be seen only by you.

Personal tabs can be accessed anytime from any device, even offline.
Learn more »
Give kudos to tab author, rate the tab!
1 2 3 4 5
comments
print report bad tab
guest
You may want to rate the tab now too:
select rating
Wanna post a correction for this tab? Suggest correction