Oops, an error
Loading. Please wait.

Going The Distance tab

version 2
version 2

Whole song

by Cake
61,948 views 126 this week
4 commentsread comments
1 2 3 4 5
x 16
add to favorites
×
Save as Personal and add changes to this tab that will be seen only by you. Learn more ›
×
You can save this tab as Personal to edit and correct it or add notes. All changes will be seen only by you. Learn more »
launch autoscroll
font size
0
reset
how to read this tab
guitar tuner
edit
Autoscroll
slow
fast
+/-
esc
set tempo
stop
Author
Unregistered
--==Going the Distance==--                        
                          :Cake:      
                        
[Verse] 
  "..and yearn for the cup; they deftly meneuver.." 
e|--------------------------------------------|
B|----0-------------0--0-------------0--------|<--let this string sort ring
G|----4------5/7\5--4--2------4/5\4--2--------|     throughout the verse
D|----5------7/9\7--5--4------5/7\5--4--------|
A|--------------------------------------------|x4
E|--------------------------------------------|
 
[Hook]
  "He's going the distance.." 
e|---------------------------------|------------------------------------|
B|---------------------------------|------------------------------------|
G|---------------------------------|------------------------------------|
D|---------------------------------|------------------------------------|
A|-------------------------------2-|-------------------/7---------------|x2
E|--0-0---0-0--0-0--0-h-3b~--5/6---|-0-0---0-0--0-0--0----10r7\3--------|
                         ^
                         |-bend slightly
 
  "because he's racing and pacing and plotting the course.."

e|---------------------------|
B|---------------------------|
G|---------------------------|
D|---------------------------|
A|--------------------0h1h2--|
E|--3-3b~--0-0--3b~--0-------|
      ^         ^  
      |-really stress the bends in these areas
 
e|---------------------------|
B|---------------------------|
G|---------------------------|
D|--------2------------------|
A|-----------------0h1h2-----|x2
E|--0h3h4---3b~---0----------|
 

************************************

/ = slide up
\ = slide down
h = hammer on 
p = pull off
b = bend
r = release
x = muted string
t = tap (with finger or pick)
~ = vibrato 

************************************

            
            
Suggest correction
Creating personal tab
Creating personal tab
You can edit any tab online and save it as your Personal.

You can edit, replace or remove any tab part or add personal notes – all changes will be seen only by you.

Personal tabs can be accessed anytime from any device, even offline.
Learn more »
comments
print report bad tab
4 comments total. Showing first comments.
+1 reply
DgorillazguyH 341 May 27, 2010 01:54 PM

great tab! very underrated band. 5*

-1 reply
DemonicTurtle66 118 May 06, 2012 06:35 PM

I like to play the second part of the chorus like this:

e:-------------------------------|
B:-------------------------------|
G:-------------------------------|
D:---------------------/2--------|
A:------------------------5-2----|
E:-0-0---0-0---0-0---0--------3--|

0 reply
spiderworky6 11 Jun 08, 2015 12:09 PM

didn't like this contribution

guest
Wanna post a correction for this tab? Suggest correction