Oops, an error
Loading. Please wait.

Guitar Man Tab

version 1
version 1

Intro

by Cake
11,579 views 3 this week
1 commentread comment
1 2 3 4 5
accurate
x 5
add to favorites
launch autoscroll
font size
0
reset
how to read this tab
guitar tuner
Autoscroll
slow
fast
+/-
esc
set tempo
stop
Help us to improve Ultimate-Guitar.com Take our survey!
×
Author
-----------------------------------------------------------------------------
                             The Guitar Man - Cake
-----------------------------------------------------------------------------
Tabbed by:Finley
Email:

Tuning: standard

e|----0~---------------------------------------------------------------------|
B|----0~--------------------------12--12~------------------------------------|
G|----1~-------------------7--9h12----12~------------------------------------|
D|-2~-2~-------0-----5--7h9-----------12~------------------------------------|
A|-2~-----0h2h3---5h7--------------------------------------------------------|
E|-0~------------------------------------------------------------------------|
Suggest correction
What's this?
You can suggest a correction to this tab. Community and Mods will review your correction and vote to approve or reject it.
comments
print report bad tab
1 comment total.
0 reply
habalushy 1,245 wrote on September 27 2008, 03:13 pm

it doesnt sound to be:
------12-
-9h12----

instead this sounds better
------10b12-
-9h12-------

guest
You may want to rate the tab now too:
select rating
Please do not post tabs as comments. Select "correction" instead!