Oops, an error
Loading. Please wait.

Guitar Man Tab

version 2
version 2

Intro

by Cake
11,853 views 12 this week
2 commentsread comments
1 2 3 4 5
x 3
add to favorites
launch autoscroll
font size
0
reset
how to read this tab
guitar tuner
Autoscroll
slow
fast
+/-
esc
set tempo
stop
Help us to improve Ultimate-Guitar.com Take our survey!
×
Author
Cake
The Guitar Man 
Pressur Chief

I've tabbed this because the other tab was incorrect.



Intro

1st part:

e:----0-----------------------------------------------:
B:----0-------------------------------10p8-10/12------:
G:-----------------------------7-----------------12---:
D:-2-----------0-------5----7h9------------------12---:
A:-2-----0-2-3------5h7-------------------------------:
E:-0--------------------------------------------------:


2nd part:

e:--------------------------------------------------------------------:
B:--------------------------------------------------------------------:
G:---------------------4-4--4-----4---7---7--7--5--5--4--4------------:
D:-5---5--5--7---7-7-------------7--------------------------7--7/9\7--:
A:--------------------------------------------------------------------:
E:--------------------------------------------------------------------:

....too lazy to tab the rest.


Comments/Corrections....nicolasfarraro@yahoo.com

-Nicolas Farraro
Suggest correction
Give kudos to tab author, rate the tab!
1 2 3 4 5
comments
print report bad tab
2 comments total.
0 reply
hdhdh.didj 10 Sep 09, 2013 10:52 AM

great tabs!!! thank you for your work on getting the tabs up and online!!

0 reply
stephanehuck 10 Feb 02, 2014 03:23 PM

e:----------------------------------------------------------:
B:----------------------------------------------------------:
G:----------------------------------------------------------:
D:------------------------------------5--5--------5-----5---:
A:---------7--7--------7-----7--0--3--------0--3-----3------:
E:---0--7--------0--7-----7---------------------------------:

guest
You may want to rate the tab now too:
select rating
Wanna post a correction for this tab? Suggest correction