Oops, an error
Loading. Please wait.

Guitar Chords

version 2
version 2

Whole song

Interactive

by Cake
6,012 views 1 this week
2 commentsread comments
1 2 3 4 5
accurate
x 8
add to favorites
launch autoscroll
font size
0
reset
transpose
0
reset
simplify chords
display chords
guitar tuner
Tab Pro tools
  • play this tab
  • loop segment
  • change instrument
  • show fretboard
  • metronome
×
Best way to learn
"Guitar"
Autoscroll
slow
fast
+/-
esc
set tempo
stop
The previous tab posted for this is not quite so accurate for the chorus, so I'm
posting something that is a little bit closer, though probably not 100% correct.
Corrections welcome.

   G              C              G             D        Dsus4     G
I'm sitting by the window of your thirty-second floor apartment

                 C                  D      Dsus4
Waiting for your phone calls all to end

    G                C
I'm sitting watching wind blow

         G
Watching time go

         D         Dsus4
Watching cars go by

    G                 C             D     Dsus4
I'm waiting for these memories to begin



   G          C     Cm
If I threw my guitar

        G              D    Dsus4
Out the window, so far down

      G          C         Cm
Would I start to regret it 

   G       C  G      D F# D          G     G C G D F# D G C G D F# D G
Or would I smile and watch it slowly fall? 



Garbage trucks and taxi cabs 
Don't seem like they can reach me here
The clamor of jack-hammers seems so faint
The way you treat me like the only
Slightly brings me down a lot
I don't think that I'll ever be the same 

If I threw my guitar
Out the window, so far down
Would I start to regret it 
Or would I smile and watch it slowly fall? 
comments
print report bad tab
2 comments total.
0 reply
yourantidrug wrote on November 7 2008, 04:13 pm

I like this a lot. =)

0 reply
idontno123 wrote on December 2 2012, 08:50 pm

If you're interested, I think the other part of the chorus is something like this.

If I.... Threw my guitar... Out the window
E-----------------------------------------------------
B-----------------------------------------------------
G-----------------------------------------------------
D------44-55------------------------------------------
A------------22-------------2-3-5-6--6/7\6------------
E-----------------------------------------------------

So far down... Would I...
E-------------------------------------------------------
B-------------------------------------------------------
G------------55-44-22-----------------------------------
D---------------------55-4-5----22-44-55--------44-55---
A----------------------------55-----------------------22
E-------------------------------------------------------

Start to regret it...
E---------------------------------
B---------------------------------
G---------------------4-5-7-8\7/8-
D---------------------------------
A---------------------------------
E---------------------------------

It isn't prefect, but it sound pretty good.

I want to post or [tab]
guest
You may want to rate the tab now too:
select rating
Please do not post tabs as comments. Select "correction" instead!