Oops, an error
Loading. Please wait.

I Will Survive Bass

version 1
version 1

Whole song

  • Complete version including correct bass riff as well as variations,.

Interactive

by Cake
66,505 views 45 this week
no commentswrite comment
1 2 3 4 5
x 3
add to favorites
launch autoscroll
font size
0
reset
guitar tuner
×
Best way to learn
"I Will Survive"
Autoscroll
slow
fast
+/-
esc
set tempo
stop
The whole song is 1-2a-3-4
Except at 00:04:01 play 1-2b-3-4


 (1)
 |                       |FAST!|                       |FAST!|
G|--------------------------------------7-----5--------5H-7---|
D|--------7-----5--------5H-7--------------7-----7--7------H-7|
A|-----------7-----7--7--------7--5--5------------------------|
E|--5--5------------------------------------------------------|

 (2a)                                                                           
 |                       |FAST!|                       |FAST!|
G| --------------------------------------5-----3--------3H-5---|
D| --------5-----3--------3H-5--------------5-----5--5------H-5|
A| -----------5-----5--5--------5--3--3------------------------|
E| --3--3------------------------------------------------------|

 (3)
 |                       |FAST!|
G|--------------------------------------4--------4--4--4--4|
D|--------3-----1--------1H-3--------4-----4--4------------|
A|-----------3-----3--3--------3--2------------------------|
E|--1--1---------------------------------------------------|

 (4)                                                                           
 |  e  e  e  e  e  e  e  e  e  e  e  e  e  e  e  e                    
G|------------------------------------------------|
D|--------2-----2--2--2--2-----2--4--4--5--5--6--6|
A|-----------2--------------2---------------------|
E|--0--0------------------------------------------|

 (2b)
 |                        |FAST-|
G|-----------------------------------5-----3------------------|
D|--------5-----3--------3H-5-----------5-----5--4--3---------|
A|-----------5-----5--5--------5--3--------------------5--5--4|
E|--3--3------------------------------------------------------|



************************************

| b  Bend

************************************
Suggest correction
Give kudos to tab author, rate the tab!
1 2 3 4 5
comments
print report bad tab
guest
You may want to rate the tab now too:
select rating
Wanna post a correction for this tab? Suggest correction