Oops, an error
Loading. Please wait.
We have an official I Will Survive tab made by UG professional guitarists. Check out the tab »
×

I Will Survive bass

version 3
version 3

Whole song

  • Complete version including correct bass riff as well as variations,.
by Cake
328 views 3 this week
3 commentsread comments
1 2 3 4 5
1 last vote to show rating
add to favorites
×
Save as Personal and add changes to this tab that will be seen only by you. Learn more ›
×
You can save this tab as Personal to edit and correct it or add notes. All changes will be seen only by you. Learn more »
launch autoscroll
font size
0
reset
guitar tuner
backing track
0:00
0:00
edit
Autoscroll
slow
fast
+/-
esc
set tempo
stop
Author
About this tab version
Complete version including correct bass riff as well as variations,. Was this info helpful? Yes No
I Will Survive -Cake
Standard Tuning (EADG)
Tabbed By: J. da Silva

Intro 
Rest Until 0:21

[Verse] (x4)

G|-------------------------------7-(x)-5-(x)---5h7-5---|
D|-----7-(x)-5-(x)---5h7-5-------------------7-------7-|
A|-----------------7-------7-5-5-----------------------|
E|-5-5-------------------------------------------------|

G|-------------------------------5-(x)-3-(x)---3h5-3---|
D|-----5-(x)-3-(x)---3h5-3-------------------5-------5-|
A|-----------------5-------5-3-3-----------------------|
E|-3-3-------------------------------------------------|

G|-------------------------------4-------4-4-4-4-4-|
D|-----3-(x)-1-(x)---1h3-1-----4---(x)-4-----------|
A|-----------------3-------3-2---------------------|
E|-1-1---------------------------------------------|

G|-------------------------------------|
D|-----2---2-2-2-2-(x)-2-2-4-4-5-5-6-6-|
A|-------4-----------------------------|
E|-0-0---------------------------------|

[Guitar Solo 1]

G|-------------------------------7-(x)-5-(x)---5h7-5---|
D|-----7-(x)-5-(x)---5h7-5-------------------7-------7-|
A|-----------------7-------7-5-5-----------------------|
E|-5-5-------------------------------------------------|

G|-------------------------------5-(x)-3-(x)---3h5-3---|
D|-----5-(x)-3-(x)---3h5-3-------------------5-------5-|
A|-----------------5-------5-3-3-----------------------|
E|-3-3-------------------------------------------------|

G|-------------------------------4-------4-4-4-4-4-|
D|-----3-(x)-1-(x)---1h3-1-----4---(x)-4-----------|
A|-----------------3-------3-2---------------------|
E|-1-1---------------------------------------------|

G|-------------------------------------|
D|-----2---2-2-2-2-(x)-2-2-4-4-5-5-6-6-|
A|-------4-----------------------------|
E|-0-0---------------------------------|

G|-------------------------------7---5---5h7--5-----|
D|-----7-(x)-5-(x)---5h7-5---------7----7-------7-5-|
A|-----------------7-------7-5-5--------------------|
E|-5-5----------------------------------------------|

G|-------------------------------5---3---------------|
D|-----5-(x)-3-(x)---3h5-3---------5----0-5-3--------|
A|-----------------5-------5-3-3---------------5-4-3-|
E|-3-3-----------------------------------------------|

G|-------------------------------4-------4-4-4-4-4--|
D|-----3-(x)-1-(x)---1h3-1-----4---(x)-4------------|
A|-----------------3-------3-2----------------------|
E|-1-1----------------------------------------------|

G|--------------------------------------|
D|-----2---2-2-2-2-(x)-2-2-4-4-5-5-6-6--|
A|-------4------------------------------|
E|-0-0----------------------------------|

[Verse]
                                                 ----------
G|-------------------------------7-(x)-5-(x)---5h7-5---|   |
D|-----7-(x)-5-(x)---5h7-5-------------------7-------7-|   |
A|-----------------7-------7-5-5-----------------------|   |
E|-5-5-------------------------------------------------|   |
                                                           |
G|-------------------------------5-(x)-3-(x)---3h5-3---|   |
D|-----5-(x)-3-(x)---3h5-3-------------------5-------5-|   |
A|-----------------5-------5-3-3-----------------------|   |
E|-3-3-------------------------------------------------|   |  x2
                                                           |
G|-------------------------------4-------4-4-4-4-4-|       |
D|-----3-(x)-1-(x)---1h3-1-----4---(x)-4-----------|       |
A|-----------------3-------3-2---------------------|       |
E|-1-1---------------------------------------------|       |
                                                           |
G|-------------------------------------|                   |
D|-----2---2-2-2-2-(x)-2-2-4-4-5-5-6-6-|                   |
A|-------4-----------------------------|                   |
E|-0-0---------------------------------|                   |
                                                 ----------
G|-------------------------------7-(x)-5-(x)---5h7-5---|
D|-----7-(x)-5-(x)---5h7-5-------------------7-------7-|
A|-----------------7-------7-5-5-----------------------|
E|-5-5-------------------------------------------------|

G|-------------------------------5---3---------------|
D|-----5-(x)-3-(x)---3h5-3---------5----0-5-3--------|
A|-----------------5-------5-3-3---------------5-4-3-|
E|-3-3-----------------------------------------------|

G|-------------------------------4-------4-4-4-4-4--|
D|-----3-(x)-1-(x)---1h3-1-----4---(x)-4------------|
A|-----------------3-------3-2----------------------|
E|-1-1----------------------------------------------|

G|--------------------------------------|
D|-----2---2-2-2-2-(x)-2-2-4-4-5-5-6-6--|
A|-------4------------------------------|
E|-0-0----------------------------------|

[Trumpet Solo] (x2)

G|-------------------------------7-(x)-5-(x)---5h7-5---|
D|-----7-(x)-5-(x)---5h7-5-------------------7-------7-|
A|-----------------7-------7-5-5-----------------------|
E|-5-5-------------------------------------------------|

G|-------------------------------5-(x)-3-(x)---3h5-3---|
D|-----5-(x)-3-(x)---3h5-3-------------------5-------5-|
A|-----------------5-------5-3-3-----------------------|
E|-3-3-------------------------------------------------|

G|-------------------------------4-------4-4-4-4-4-|
D|-----3-(x)-1-(x)---1h3-1-----4---(x)-4-----------|
A|-----------------3-------3-2---------------------|
E|-1-1---------------------------------------------|

G|-------------------------------------|
D|-----2---2-2-2-2-(x)-2-2-4-4-5-5-6-6-|
A|-------4-----------------------------|
E|-0-0---------------------------------|

[Bass Solo]

G|-------------------------------7---5---5h7--5-----|
D|-----7-(x)-5-(x)---5h7-5---------7----7-------7-5-|
A|-----------------7-------7-5-5--------------------|
E|-5-5----------------------------------------------|

G|-----------------------------5---3-------------|
D|-----5-(x)-3-(x)---3h5-3-----------5p4-3-------|
A|-----------------5-------5-3---3---------5-4-3-|
E|-3-3-------------------------------------------|

G|-------------------------------4-------4-4-4-4-4--|
D|-----3-(x)-1-(x)---1h3-1-----4---(x)-4------------|
A|-----------------3-------3-2----------------------|
E|-1-1----------------------------------------------|

G|--------------------------------------|
D|-----2---2-2-2-2-(x)-2-2-4-4-5-5-6-6--|
A|-------4------------------------------|
E|-0-0----------------------------------|

[Guitar Solo 2]

G|-------------------------------7-(x)-5-(x)---5h7-5---|
D|-----7-(x)-5-(x)---5h7-5-------------------7-------7-|
A|-----------------7-------7-5-5-----------------------|
E|-5-5-------------------------------------------------|

G|-------------------------------5-(x)-3-(x)---3h5-3---|
D|-----5-(x)-3-(x)---3h5-3-------------------5-------5-|
A|-----------------5-------5-3-3-----------------------|
E|-3-3-------------------------------------------------|

G|-------------------------------4-------4-4-4-4-4-|
D|-----3-(x)-1-(x)---1h3-1-----4---(x)-4-----------|
A|-----------------3-------3-2---------------------|
E|-1-1---------------------------------------------|

G|-------------------------------------|
D|-----2---2-2-2-2-(x)-2-2-4-4-5-5-6-6-|
A|-------4-----------------------------|
E|-0-0---------------------------------|

G|-------------------------------7---5---5h7--5-----|
D|-----7-(x)-5-(x)---5h7-5---------7----7-------7-5-|
A|-----------------7-------7-5-5--------------------|
E|-5-5----------------------------------------------|

G|-----------------------------5---3-------------|
D|-----5-(x)-3-(x)---3h5-3-----------5p4-3-------|
A|-----------------5-------5-3---3---------5-4-3-|
E|-3-3-------------------------------------------|

G|-------------------------------4-------4-4-4-4-4--|
D|-----3-(x)-1-(x)---1h3-1-----4---(x)-4------------|
A|-----------------3-------3-2----------------------|
E|-1-1----------------------------------------------|

[End]

G|-----|--------------|
D|-----|---7----------|
A|-----|-------7------|
E|--0--|-----------5--|

************************************

| x   Dead note
| g   Grace note
| (n) Ghost note
| h   Hammer-on
| p   Pull-off
| r   Release
| >   Accented note
| t   Tapping
| b   Bend
| br  Bend release
| pb  Pre-bend
| pbr Pre-bend release
| /   Slide up
| \   Slide down
| ~   Vibrato
| s   Slap
| P   Pop
| PM  Palm mute
| TR  Trill
| N   Tremolo

************************************

            
            
Suggest correction
Creating personal tab
Creating personal tab
You can edit any tab online and save it as your Personal.

You can edit, replace or remove any tab part or add personal notes – all changes will be seen only by you.

Personal tabs can be accessed anytime from any device, even offline.
Learn more »
Give kudos to tab author, rate the tab!
1 2 3 4 5
comments
print report bad tab
3 comments total.
+1 reply
AlexFluffyman [ug] 13,874 Aug 23, 2016 03:16 AM

Well done!

+1 reply
samuel-hebert1 76 Aug 23, 2016 12:37 PM

Thank you for this great tab, it's perfect !! Five stars, of course. :)

guest
You may want to rate the tab now too:
select rating
Wanna post a correction for this tab? Suggest correction