Oops, an error
Loading. Please wait.

I Will Survive Tab

version 3
version 3

Whole song

Interactive

by Cake
74,546 views 48 this week
11 commentsread comments
1 2 3 4 5
accurate
x 27
add to favorites
launch autoscroll
font size
0
reset
how to read this tab
guitar tuner
Autoscroll
slow
fast
+/-
esc
set tempo
stop
Help us to improve Ultimate-Guitar.com Take our survey!
×
Author
Difficulty
-------------------------------------------------------------------------------
                             I Will Survive - Cake
-------------------------------------------------------------------------------
Tabbed by: Jeremie
Email: :)


Pls rate.This is not the perfect tab but this is the closest I can get. Enjoy! (2004)


*EDITED 8 Feb 2013* Some parts may be off. Feel free to give your suggestions!


Tuning: EADGBe

Chords :
     Am    Dm    G     C     F     B     E     E7
e|---5-----5-----3-----3-----1-----2-----0-----0-----------------------------|
B|---5-----6-----3-----5-----1-----4-----0-----0-----------------------------|
G|---5-----7-----4-----5-----2-----4-----1-----1-----------------------------|
D|---7-----7-----5-----5-----2-----4-----2-----0-----------------------------|
A|---7-----5-----5-----3-----3-----2-----2-----2-----------------------------|
E|---5-----5-----3-----x-----1-----x-----0-----0-----------------------------|




Pre-Chorus & Chorus Lead :

e|-------------------------x-------------------------------------------------|
B|-----8--6--8--5--5--4----x-------------------------------------------------|
G|-----7--5--7--4--6--3----1-------------------------------------------------|
D|-------------------------2-------------------------------------------------|
A|--0----------------------2-------------------------------------------------|
E|-------------------------0-------------------------------------------------|




Solo :

e|---------------------------------------------------------------------------|
B|---8b9--8-5----------------------------------------------------------------|
G|------------7b8--7-5----5h7-777777---5h7-5---4h5p4h5p4---------------------|
D|---------------------7-------------7---------------------------------------|
A|---------------------------------------------------------------------------|
E|---------------------------------------------------------------------------|


e|---------------------------------------------------------------------------|
B|---------------------------------------------------------------------------|
G|---------------------------------------------------------------------------|
D|-------5---7b8--5--5-----7-5----7-5------5-6-7-----------------------------|
A|---5/7-----------7-------------------7-------------------------------------|
E|---------------------------------------------------------------------------|


e|--------------------------------------------(5)-(8)--(5)-----------8~------|
B|---------------------------------------------5---8----5----8/10----10~-----|
G|-----5---5-7--7b8--5---5--7--7b8~--7b8~--5---------------------------------|
D|---7---7-------------7-----------------------------------------------------|
A|---------------------------------------------------------------------------|
E|---------------------------------------------------------------------------|


e|---------------------------------------------------------------------------|
B|---8b9-5--7---5--7-5---5-7-5-----------------------------------------------|
G|------------6--------6-----------------------------------------------------|
D|---------------------------------------------------------------------------|
A|---------------------------------------------------------------------------|
E|---------------------------------------------------------------------------|


e|-------8-----7-------------------------------------------------------------|
B|-------------------------10------------------------------------------------|
G|---7/9-----9-------9/11----11--9---12-12---11~~----------------------------|
D|-----------------------------------12-12---12~~----------------------------|
A|---------------------------------------------------------------------------|
E|---------------------------------------------------------------------------|


e|-------7-----5-------------------------------------------------------------|
B|---------------------8-----------------------------------------------------|
G|---5/7----7-----7/9----9--7--10-10--9~-----9--9~-9~------------------------|
D|-----------------------------10-10--10~------------------------------------|
A|---------------------------------------------------------------------------|
E|---------------------------------------------------------------------------|


e|-------5-----3--------------------------------------------------------------------|
B|----------------------6-------------------------------------------------------12~-|
G|---3/5-----5-----5/7----7-5--9-9--8~-----9-9~--11-9-----9h11-11s13-13-13---14-----|
D|-----------------------------9-9--9~-----------------11---------------------------|
A|----------------------------------------------------------------------------------|
E|----------------------------------------------------------------------------------|




Outro Lead : play around with these couple of notes

e|---5---------3-/-5---------------------------------------------------------|
B|--(5)-------(3)/(5)----------5--3-1-0--0-1-0-------------------------------|
G|-----------------------------------------------2-1-------------------------|
D|---------------------------------------------------------------------------|
A|---------------------------------------------------------------------------|
E|---------------------------------------------------------------------------|



End :

e|-------------5------------5------------5------------------------------------|
B|-----------5------------5------------5--------------------------------------|
G|---------5------------5------------5----------------------------------------|
D|-------7------------7------------7------------------------------------------|
A|-----7------------7------------7--------------------------------------------|
E|---5------------5------------5----------------------------------------------|




| /  slide up
| \  slide down
| h  hammer-on
| p  pull-off
| ~  vibrato
| +  harmonic
| x  Mute note
===============================================================================
Suggest correction
What's this?
You can suggest a correction to this tab. Community and Mods will review your correction and vote to approve or reject it.
comments
print report bad tab
11 comments total. Showing first comments.
0 reply
HCHamsterman 39 wrote on October 17 2006, 06:17 pm

Not bad...


I like this song now

+1 reply
pHaKe 1,838 wrote on January 15 2007, 12:27 am

decent tab...

btw.
MCHamsterman, that makes no sense.

0 reply
manicdepressive 103 wrote on January 16 2007, 02:45 am

thank you.

guest
You may want to rate the tab now too:
select rating
Please do not post tabs as comments. Select "correction" instead!