Oops, an error
Loading. Please wait.

Long Line Of Cars bass

version 2
version 2

Whole song

Interactive

by Cake
2,910 views 3 this week
no commentswrite comment
1 2 3 4 5
1 last vote to show rating
add to favorites
×
Save as Personal and add changes to this tab that will be seen only by you. Learn more ›
×
You can save this tab as Personal to edit and correct it or add notes. All changes will be seen only by you. Learn more »
launch autoscroll
font size
0
reset
guitar tuner
edit
Autoscroll
slow
fast
+/-
esc
set tempo
stop
Author
Difficulty
Song: "Long Line of Cars"
Album: Comfort Eagle
Artist: CAKE
Year: 2001

This is my interpretation of "Long Line of Cars". I felt like the other bass tabs 
were sort of hit-and-miss, but hopefully I got it pretty close to what it is. 
Comments are welcome.

KEY:
----
h = hammer on
p = pull off
H = let ring
x = dead note
~ = vibrato


G|-------------------------------------------------|
D|-------------------------------------------------|
A|-2---2H---0-2-0-4--5--4--2---2H---0-2-0----------|
E|----------------------------------------2H---0-1-|

G|-------------------------------------------------|
D|----------------------2-3-4---4H-----------------|
A|----------2-3-4--4H----------------2-3-4--4H-----|
E|-2---2H----------------------------------------2-|

G|---------------------------|
D|---------------------------|
A|-2---2H---0-2-0-4--5--4--2-|
E|---------------------------|

(rest for 5 beats)

G|-------------------------|
D|-------------------------|
A|-2---2H---0-2-0-4--5--4--| x3
E|-------------------------|

G|----------|
D|-2---2H---|
A|----------|
E|----------|

G|-------------------------------------------------|
D|-------------------------------------------------|
A|-2---2H---0-2-0-4--5--4--2---2H---0-2-0----------|
E|----------------------------------------2H---0-1-|

G|-------------------------------------------------|
D|----------------------2-3-4---4H-----------------|
A|----------2-3-4--4H----------------2-3-4--4H-----|
E|-2---2H----------------------------------------2-|


G|-------------------------------------------------|
D|-------------------------------------------------|
A|-2---2H---0-2-0-4--5--4--2---2H---0-2-0----------|
E|----------------------------------------2H---0-1-|

G|----------------------------|
D|----------------------2-3-4-|
A|----------2-3-4--4H---------|
E|-2---2H---------------------|

(rest for 3 beats)

G|---------------------------|
D|---------------------------|
A|-2---2H---0-2-0-4--5--4--2-|
E|---------------------------|

(rest for 5 beats)

G|-------------------------|
D|-------------------------|
A|-2---2H---0-2-0-4--5--4--| x3
E|-------------------------|

G|----------|
D|-2---2H---|
A|----------|
E|----------|

G|-------------------------------------------------|
D|-------------------------------------------------|
A|-2---2H---0-2-0-4--5--4--2---2H---0-2-0----------|
E|----------------------------------------2H---0-1-|

G|-------------------------------------------------|
D|----------------------2-3-4---4H-----------------|
A|----------2-3-4--4H----------------2-3-4--4H-----|
E|-2---2H----------------------------------------2-|


G|-------------------------------------------------|
D|-------------------------------------------------|
A|-2---2H---0-2-0-4--5--4--2---2H---0-2-0----------|
E|----------------------------------------2H---0-1-|

G|----------------------------|
D|----------------------2-3-4-|
A|----------2-3-4--4H---------|
E|-2---2H---------------------|

(rest for 9 beats)

G|-------------------------------------------------|
D|-------------------------------------------------|
A|-2---2H---0-2-0-4--5--4--2---2H---0-2-0----------|
E|----------------------------------------2H---0-1-|

G|-------------------------------------------------|
D|----------------------2-3-4---4H-----------------|
A|----------2-3-4--4H----------------2-3-4--4H-----|
E|-2---2H----------------------------------------2-|

G|-------------------------|
D|-------------------------|
A|-2---2H---0-2-0-4--5--4--|
E|-------------------------|

G|----------|
D|-2---2H---|
A|----------|
E|----------|


G|-------------------------------------------------|
D|-------------------------------------------------|
A|-2---2H---0-2-0-4--5--4--2---2H---0-2-0----------|
E|----------------------------------------2H---0-1-|

G|-------------------------------------------------|
D|----------------------2-3-4---4H-----------------|
A|----------2-3-4--4H----------------2-3-4--4H-----|
E|-2---2H----------------------------------------2-|

G|---------------------------|
D|---------------------------|
A|-2---2H---0-2-0-4--5--4--2-|
E|---------------------------|

(rest for 3 beats)

G|---|
D|---|
A|-2-|
E|---|

(rest for 9 beats)

G|-------------------------|
D|-------------------------|
A|-2---2H---0-2-0-4--5--4--| x3
E|-------------------------|

G|----------|
D|-2---2H---|
A|----------|
E|----------|

G|-------------------------------------------------|
D|-------------------------------------------------|
A|-2---2H---0-2-0-4--5--4--2---2H---0-2-0----------|
E|----------------------------------------2H---0-1-|

G|-------------------------------------------------|
D|----------------------2-3-4---4H-----------------|
A|----------2-3-4--4H----------------2-3-4--4H-----|
E|-2---2H----------------------------------------2-|

G|-------------------------------------------------|
D|-------------------------------------------------|
A|-2---2H---0-2-0-4--5--4--2---2H---0-2-0-4--5--4--|
E|-------------------------------------------------|

G|-------------------------------------------------|
D|----------------------2-3-4---4H-----------------|
A|----------2-3-4--4H----------------2-3-4--4H-----|
E|-2---2H----------------------------------------x-|

G|----------------------------|
D|----------------------2-3-4-|
A|----------2-3-4--4H---------|
E|-2---2H---------------------|

(rest for 3 beats)

G|---------------------------|
D|---------------------------|
A|-2---2H---0-2-0-4--5--4--2-|
E|---------------------------|

(rest for 3 beats)

G|-------------------------------------------------|
D|----------------------2-3-4---4H-----------------|
A|----------2-3-4--4H----------------2-3-4--4H-----| x2
E|-2---2H----------------------------------------0-|

G|---------------------------------------------------|
D|----------------------2-3-4---4H-------------------|
A|----------2-3-4--4H----------------2-3-4--4H-------| x5
E|-2---2H----------------------------------------0-1-|

G|---------------------------|
D|----------------------2-3-4| (cut the last note short)
A|----------2-3-4--4H--------|
E|-2---2H--------------------|


And that's that.

            
            
Suggest correction
Creating personal tab
Creating personal tab
You can edit any tab online and save it as your Personal.

You can edit, replace or remove any tab part or add personal notes – all changes will be seen only by you.

Personal tabs can be accessed anytime from any device, even offline.
Learn more »
Give kudos to tab author, rate the tab!
1 2 3 4 5
comments
print report bad tab
guest
You may want to rate the tab now too:
select rating
Wanna post a correction for this tab? Suggest correction