Oops, an error
Loading. Please wait.

Open Book intro tab

version 1
version 1

Intro

by Cake
5,363 views 3 this week
3 commentsread comments
1 2 3 4 5
x 4
add to favorites
×
Save as Personal and add changes to this tab that will be seen only by you. Learn more ›
×
You can save this tab as Personal to edit and correct it or add notes. All changes will be seen only by you. Learn more »
launch autoscroll
font size
0
reset
how to read this tab
guitar tuner
edit
Autoscroll
slow
fast
+/-
esc
set tempo
stop
Difficulty
It's pretty simple. This is only how I play it, so feel free to expiriment. 

E#-------------------------------------------------------------------
B#-------------------------------------------------------------------
G#-------------------------------------------------------------------
D#5-5-5--5-5-7-6--5-5-5-5-7-7-7-7-7-7-7-7-7-7-7-7-9-9-9-9-10-10-10-10
A#5-5-5--5-5-7-6--5-5-5-5-7-7-7-7-7-7-7-7-7-7-7-7-9-9-9-9-10-10-10-10
E#5-5-5--5-5-7-6--5-5-5-5-7-7-7-7-7-7-7-7-7-7-7-7-9-9-9-9-10-10-10-10


Bear in mind, it's not very good and I had to hand write it, but I tried to make it accurate.

-Have fun,
Sparky the Goldfish.

            
            
Suggest correction
Creating personal tab
Creating personal tab
You can edit any tab online and save it as your Personal.

You can edit, replace or remove any tab part or add personal notes – all changes will be seen only by you.

Personal tabs can be accessed anytime from any device, even offline.
Learn more »
comments
print report bad tab
3 comments total.
+1 reply
ninjadrummer 10 Jul 07, 2007 04:50 PM

i think this sounds more accurate. i wish someone would do a full tab of this!

E#-------------------------------------------------------------------
B#-------------------------------------------------------------------
G#-------------------------------------------------------------------
D#0-0-0--0-0-0-3-2-0-0-----------------------------------------------
A#0-0-0--0-0-0-3-2-0-0-----------------------------------------------
E#-------------------------------------------------------------------

0 reply
keneticshark24 135 Feb 05, 2008 07:52 AM

Yeah, that'd be nice..D:

0 reply
SheenZula 41 Sep 08, 2008 01:02 PM

the D stays open on that part and the tunin isnt supposed to be E#

guest
Wanna post a correction for this tab? Suggest correction