Oops, an error
Loading. Please wait.

Opera Singer bass

version 1
version 1

Whole song

Interactive

by Cake
4,341 views 1 this week
no commentswrite comment
1 2 3 4 5
1 last vote to show rating
add to favorites
×
Save as Personal and add changes to this tab that will be seen only by you. Learn more ›
×
You can save this tab as Personal to edit and correct it or add notes. All changes will be seen only by you. Learn more »
launch autoscroll
font size
0
reset
guitar tuner
edit
Autoscroll
slow
fast
+/-
esc
set tempo
stop
Author
Difficulty
-------------------------------------------------------------------------------
                            OPERA SINGER - Cake
-------------------------------------------------------------------------------

Tabbed By : Eric

Tuning: Standard


Most of the song consists of the same shape repeated over and over again, with
minor variations, through the chord progression. Once you get this shape, and 
you understand where all the changes are, it's easy to nail out perfectly. The
little three note runs in the main shape can be played with hammer-ons, though
when they're played as individual notes, the part sounds clearer and cuts 
better, in my opinion. This should be note for note, but I am still only human!

Enjoy!


Intro


G|-------|-------------------------------------------------------------------|
D|-------|-9-------------9----------------9-------------9--------------------|
A|-6-7-8-|-----7-8-9---------7-8-9------------7-8-9--------6--7--8-----------|
E|-------|-----------7---------------7--------------7---------------7--------|

G|-------------------------------------------------------------------|
D|-9-------------9----------------9-------------9--------------------|
A|-----7-8-9---------7-8-9------------7-8-9--------------------------|
E|-----------7---------------7--------------7------------------------|


Verses - Play twice per verse


G|---------------------------------------------------------------------------|
D|---------------------------------------------------------------------------|
A|-7--7-7-7-7--7----7-7----7--7-7-7-7---7----7-7-----7---7-7-7-7---7----7-7--|
E|----------------7------------------------7--------------------------7------|

G|-------------------------------------------------------|
D|-------------------------7-------------7---------------|
A|-----------------------------5-6-7---------5-6-7-------|
E|-5--5-5-5-5--5--0-5-5--------------5---------------5---|

G|-------------------------------------------------------------------|
D|-9-------------9----------------9-------------9--------------------|
A|-----7-8-9---------7-8-9------------7-8-9---------7-8-9------------|
E|-----------7---------------7--------------7---------------7--------|

G|-------------------------------|
D|-------------------------------|
A|-7--------------7--------------|
E|-----5-6-7-0-------5-6-7---0---|

G|-------------------------------------------------------------|
D|-------------------------------------------------------------|
A|-7--------------7--------------7------------7----------------|
E|-----5-6-7-0-------5-6-7---0------5-6-7-0-------5-6-7---0----|

G|-------------------------------------------------------------|
D|-------------------------------7-------------7---------------|
A|-7--------------7-----------------5-6-7---------5-6-7--------|
E|-----5-6-7-0-------5-6-7---0------------5---------------5----|

G|-------------------------------------------------------------------|
D|-7-------------7----------------9-------------9--------------------|
A|-----5-6-7---------5-6-7------------7-8-9---------7-8-9------------|
E|-----------5---------------5--------------7---------------7--------|

G|--------------------------------------------------------------|
D|-9-------------9----------------------------------------------|
A|-----7-8-9---------7-8-9--------7--------------7--------------|
E|-----------7---------------7--------5-6-7-0-------5-6-7---0---|

G|-------------------------------|
D|-------------------------------|
A|-7--------------7--------------|
E|-----5-6-7-0-------5-6-7---0---|


Chorus - Play twice


G|-------------------------------------------------------------------|
D|-9-------------9----------------9-------------9--------------------|
A|-----7-8-9---------7-8-9------------7-8-9---------7-8-9------------|
E|-----------7---------------7--------------7---------------7--------|

G|--------------------------------------------------------------|
D|-7-------------7----------------------------------------------|
A|-----5-6-7---------5-6-7--------7--------------7--------------|
E|-----------5---------------5--------5-6-7-0-------5-6-7---0---|


Interlude


G|-------------------------------------------------------------------|
D|-9-------------9----------------9-------------9--------------------|
A|-----7-8-9---------7-8-9------------7-8-9--------6--7--8-----------|
E|-----------7---------------7--------------7---------------7--------|

G|-------------------------------------------------------------------|
D|-9-------------9----------------9-------------9--------------------|
A|-----7-8-9---------7-8-9------------7-8-9------------------6-7-8---|
E|-----------7---------------7--------------7------------------------|

G|-------------------------------------------------------------------|
D|-9-------------9----------------9-------------9--------------------|
A|-----7-8-9---------7-8-9------------7-8-9--------6--7--8-----------|
E|-----------7---------------7--------------7---------------7--------|

G|-------------------------------------------------------------------|
D|-9-------------9----------------9-------------9--------------------|
A|-----7-8-9---------7-8-9------------7-8-9--------------------------|
E|-----------7---------------7--------------7------------------------|


Verse again


Chorus again


Outro


G|-------------------------------------------------------------------|
D|-9-------------9----------------9-------------9--------------------|   X 5
A|-----7-8-9---------7-8-9------------7-8-9--------6--7--8-----------|
E|-----------7---------------7--------------7---------------7--------|



G|-------------------------------------------------------------------|
D|-9-------------9----------------9-------------9--------------------|
A|-----7-8-9---------7-8-9------------7-8-9--------------------------|
E|-----------7---------------7--------------7------------------------|


That's it!

===============================================================================

            
            
Suggest correction
Creating personal tab
Creating personal tab
You can edit any tab online and save it as your Personal.

You can edit, replace or remove any tab part or add personal notes – all changes will be seen only by you.

Personal tabs can be accessed anytime from any device, even offline.
Learn more »
Give kudos to tab author, rate the tab!
1 2 3 4 5
comments
print report bad tab
guest
You may want to rate the tab now too:
select rating
Wanna post a correction for this tab? Suggest correction