Oops, an error
Loading. Please wait.

Rock N Roll Lifestyle bass

by Cake
2,974 views 1 this week
1 commentread comment
1 2 3 4 5
x 6
add to favorites
×
Save as Personal and add changes to this tab that will be seen only by you. Learn more ›
×
You can save this tab as Personal to edit and correct it or add notes. All changes will be seen only by you. Learn more »
launch autoscroll
font size
0
reset
guitar tuner
edit
Autoscroll
slow
fast
+/-
esc
set tempo
stop
Author
Difficulty
This song is really easy - the main riff is just: 

G|---------------|---------------|---------------|---------------|
D|---------------|---------------|---------------|---------------|
A|---------------|0-----0--------|2-----0--------|------0-----2--|
E|0-----0--------|---------------|------------3-2|0--------------|
 |1 & 2 & 3 & 4 &|1 & 2 & 3 & 4 &|1 & 2 & 3 & 4 &|1 & 2 & 3 & 4 &|



It get's varied up a bit in the middle:
G|---------------|---------------|---------------|---------------|
D|---------------|---------------|---------------|---------------|
A|---------------|0-----0-----0-1|2-----0--------|------0-----2--|
E|0-----0-------3|---------------|------------3-2|0--------------|
 |1 & 2 & 3 & 4 &|1 & 2 & 3 & 4 &|1 & 2 & 3 & 4 &|1 & 2 & 3 & 4 &|

            
            
Suggest correction
Creating personal tab
Creating personal tab
You can edit any tab online and save it as your Personal.

You can edit, replace or remove any tab part or add personal notes – all changes will be seen only by you.

Personal tabs can be accessed anytime from any device, even offline.
Learn more »
comments
print report bad tab
1 comment total.
0 reply
lmcconnell1 10 Jan 05, 2016 01:12 PM

When do I change to the second one? You are too lazy to write words.

guest
You may want to rate the tab now too:
select rating
Wanna post a correction for this tab? Suggest correction