Oops, an error
Loading. Please wait.

Rock N Roll Lifestyle Tab

version 1
version 1

Whole song

by Cake
15,720 views 15 this week
4 commentsread comments
1 2 3 4 5
x 9
add to favorites
launch autoscroll
font size
0
reset
how to read this tab
guitar tuner
Autoscroll
slow
fast
+/-
esc
set tempo
stop
Help us to improve Ultimate-Guitar.com Take our survey!
×
Difficulty
novice
The first part of this song goes like this:

h = hammer
p = pull off
\ = slide
* = mute notes after playing

   E     A     B  A  G  F# A  B
e----------------------------------|
B----------------------------------|
D--------2*-2*-4*-2*-------2*-4--4-|
G--2*-2*-2*-2*-4*-2*-5--4--2*-4--4-|
A--2*-2*-0*-0*-2*-0*-5--4--0*-2--2-|
E--0*-0*-------------3--2----------|
                     (The transition between the G F# and A here is faster)

I think I have most of the faster part down.  Some parts of it may be off.  Let me know 
you all have any improvements and what not.  Happy playing.

e------------------------------------------------------|
B------------------------------------------------------|
D------------------------------------------------------|
G----------------------------------1h2h3-2h3h4-3p2p1---|
A--------1h2h3-2h3h4-3p2p1---1h2h3-------------------1-|
E--1h2h3-------------------1---------------------------|

e-------------------------------------|
B-------------------------------------|
D---------3\5-5p4p3p0-3-4-3-4-3-4-3-4-|
G--2h3h4------------------------------|
A-------------------------------------|
E-------------------------------------|

After that, you just hit back on the main riff.  I know there's more to the song, but 
all i've got for now.  Peace out.

-The Drizzle
Suggest correction
comments
print report bad tab
4 comments total. Showing first comments.
0 reply
doctortab 10 Dec 07, 2006 10:15 PM

might this be dreww.
comment on ur thing if it iss

+1 reply
phrank496 165 May 09, 2008 09:30 PM

Actually.. i think the main riff goes like this:

e---------------------------------|
B---------------------------------|
D--------2*-2*-4*-4*---------2*-4-|
G--2*-2*-2*-2*-4*-4*-5-4--2*-2*-4-|
A--2*-2*-0*-0*-2*-2*-5-4--2*-0*-2-|
E--0*-0*-------------3-2--0*------|

+1 reply
sdyck 30 Apr 13, 2009 10:58 PM

close;

e---------------------------------|
B---------------------------------|
D--------2*-2*-4*-4*---------2*-4-|
G--2*-2*-2*-2*-4*-4*-5-4--2*-2*-4-|
A--2*-2*-0*-0*-2*-0*-5-4--2*-0*-2-|
E--0*-0*-------------3-2--0*------|

on that 6th chord you let go of the a string

guest
You may want to rate the tab now too:
select rating
Wanna post a correction for this tab? Suggest correction