Oops, an error
Loading. Please wait.
We have an official Short Skirt Long Jacket tab made by UG professional guitarists. Check out the tab »
×
by CAKE
52,050 views 42 this week
1 commentread comment
1 2 3 4 5
x 12
add to favorites
×
Save as Personal and add changes to this tab that will be seen only by you. Learn more ›
×
You can save this tab as Personal to edit and correct it or add notes. All changes will be seen only by you. Learn more »
launch autoscroll
font size
0
reset
guitar tuner
backing track
0:00
0:00
edit
Autoscroll
slow
fast
+/-
esc
set tempo
stop
Author
Unregistered
Standard Tuning

This song is pretty nice, and it really grows on you. I found myself
really liking it for no apparent reason, but I figured I'd tab it out
cause it's a lot of fun to play. I didn't take much time figuring
it out so some of it may be off. Listen to the song to get the right
timming. Email me with questions/revisions/comments, etc.

Enjoy.


[Verse]

G----------------------------------------------------|
D----------------------------------------------------|
A--5-3h5-3h5-3h5p3-----------------------------------|
E------------------5-1-3-5---------------------------|

G----------------------------------------------------|
D----------------------------------------------------|
A--5-3-5---------------------------------------------|
E--------1-3-5---------------------------------------|

[Pre-Chorus]

G----------------------------------------------------|
D----------------------------------------------------|
A-5-5------------------------------------------------|
E-----5-3-3-5--------------------------...33333333---|

[Chorus]

G----------------------------------------------------|
D----------------------------------------------------|
A----------------------------------------------------|
E-5-3h5-3h5------------------------------------------|

[Bridge]

G----------------------------------------------------|
D----------------------------------------------------|
A-5-5-3h5-3h5-------------------3--------------------|
E-------------5-3-3-3-1h3-1h3-5----------------------|
.. na na na na na na ..


************************************

| h  Hammer-on
| p  Pull-off

************************************

            
            
Suggest correction
Creating personal tab
Creating personal tab
You can edit any tab online and save it as your Personal.

You can edit, replace or remove any tab part or add personal notes – all changes will be seen only by you.

Personal tabs can be accessed anytime from any device, even offline.
Learn more »
comments
print report bad tab
1 comment total.
0 reply
sonwave 10 Sep 13, 2002 08:00 PM

When it gets to the Pre-Chorus it actually goes:
A-5------------------5--|
E---5-4-3----3-5------|

guest
Wanna post a correction for this tab? Suggest correction