Oops, an error
Loading. Please wait.

Short Skirt Long Jacket bass

version 3
version 3

Whole song

Interactive

by Cake
21,684 views 15 this week
2 commentsread comments
1 2 3 4 5
x 10
add to favorites
×
Save as Personal and add changes to this tab that will be seen only by you. Learn more ›
×
You can save this tab as Personal to edit and correct it or add notes. All changes will be seen only by you. Learn more »
launch autoscroll
font size
0
reset
guitar tuner
backing track
0:00
0:00
edit
Autoscroll
slow
fast
+/-
esc
set tempo
stop
Author
Difficulty
Song: Short Skirt / Long Jacket
Artist: Cake
Album: Comfort Eagle

Timings going to be off but I did my best to get the right notes all the
way through. I think I did a decent job. The outro might sound odd until
you get the correct timing, but I'm pretty sure its all right. This song
tends to grow on you, very fun bass part. Enjoy!

Standard Tuning (E A D G)

Verse:
G----------------------------------------------------|
D----------------------------------------------------|
A--5--3h5-3h5--3h5p3---------------------------------|
E--------------------5-1-3-5-------------------------|

G----------------------------------------------------|
D----------------------------------------------------|
A--5--3--2-5-----------------------------------------|
E------------2-3-4-5---------------------------------|

Pre-Chorus
G----------------------------------------------------|
D-*-----------------*--------------------------------|
A-*-5-------------5-*--------------------------------|
E------5--3-3--5------------------...3-2-3-2-3-2-3-4-|

Chorus:
G----------------------------------------------------|
D----------------------------------------------------|
A----------------------------------------------------|
E-5-5-3h5p0-3-4--------------------------------------|

Outro:
G----------------------------------------------------|
D----------------------------------------------------|
A-5-5-3h5-----------------3--------------------------|
E---------5-4-3-3-1h3-5-1----------------------------|

            
            
Suggest correction
Creating personal tab
Creating personal tab
You can edit any tab online and save it as your Personal.

You can edit, replace or remove any tab part or add personal notes – all changes will be seen only by you.

Personal tabs can be accessed anytime from any device, even offline.
Learn more »
comments
print report bad tab
2 comments total.
-2 reply
mandolinrocker 10 Nov 04, 2008 05:52 AM

great tab! i give it five stars. but i think they are playing an octive higher. if you start at the 7th fret on the G string (yes, you can make your stupid bathing suit refrences now) it sounds slightly better.

+1 reply
TK1 238 Nov 04, 2008 09:40 AM

i can see your reasoning, and by itself it does sound better an octave higher. don't forget that in the song there's a bass AND a guitar playing the same thing.

thanks for the 5 star =D

guest
You may want to rate the tab now too:
select rating
Wanna post a correction for this tab? Suggest correction