Oops, an error
Loading. Please wait.

Symphony In C tab

by Cake
2,786 views 3 this week
1 commentread comment
1 2 3 4 5
x 3
add to favorites
×
Save as Personal and add changes to this tab that will be seen only by you. Learn more ›
×
You can save this tab as Personal to edit and correct it or add notes. All changes will be seen only by you. Learn more »
launch autoscroll
font size
0
reset
how to read this tab
guitar tuner
edit
Autoscroll
slow
fast
+/-
esc
set tempo
stop
There?s NOTHING for this great song on the net, so I figured I?d tab it.
This is the work of my teacher and I, so don?t touch it. Or else?
If you DO wanna get a hold of me, you can write at nickgogarty@hotmail.com

Cake-Symphony in C

Intro: Dm Dm

      Bb F Bb F
?defies all earthly?
Dm Am Dm F/C G Bb F Bb
F C/E Dm G C (x2)
Dm Am Dm F/C G Bb F Bb F (for the weird strumming during this verse, just hit the top string of the chord 
the bottom ones repeatedly)
Dm Am Dm F/C G Bb F Bb Bb

Chorus:
F C/E   Dm G   G G
F C/E   Dm G   C C
F C/E   Dm G   C

Solo:
E---5------------------------------------5----------------5-------7-------------|
B-----6---------5--------------------------6--------5-6----8-3s-----------------|
G--------7-6-7---7--------------------------7-6-7-------------------------------|
D--------------------6-7-5s2----------------------------------------------------|
A-------------------------------------------------------------------------------|
E-------------------------------------------------------------------------------|

E---------------------------------------------------------------10-8----------13------12----10-------|
B----------1-3-1p0--------------------------------5-6-8-10-----------10-------10-----10--------------|
G--3-2-3------------3-2-----3--2---------7-5-7-----------------------10-------10-----10--------------|
D--------------------------3--3--2-------------------------------------------------------------------|
A----------------------------------------------------------------------------------------------------|
E----------------------------------------------------------------------------------------------------|
(for the solo during the outro, just repeat those last few notes)
And there it is. Not too hard?.but effective.

            
            
Suggest correction
Creating personal tab
Creating personal tab
You can edit any tab online and save it as your Personal.

You can edit, replace or remove any tab part or add personal notes – all changes will be seen only by you.

Personal tabs can be accessed anytime from any device, even offline.
Learn more »
Give kudos to tab author, rate the tab!
1 2 3 4 5
comments
print report bad tab
1 comment total.
0 reply
i.love.beatles. 10 Sep 05, 2013 02:44 PM

E---5------------------------------------5----------------5------7------
B-----6---------5-6------------------------6--------5-6----8-------------
G--------7-6-7-------------------------------7-6-7-----------6s7-----------
D-------------------6-7-5s2-----------------------------------------------
A--------------------------------------------------------------------------
E--------------------------------------------------------------------------

guest
Wanna post a correction for this tab? Suggest correction