Oops, an error
Loading. Please wait.

The Distance tab

version 2
version 2

Whole song

Interactive

by Cake
49,950 views 78 this week
3 commentsread comments
1 2 3 4 5
x 24
add to favorites
×
Save as Personal and add changes to this tab that will be seen only by you. Learn more ›
×
You can save this tab as Personal to edit and correct it or add notes. All changes will be seen only by you. Learn more »
launch autoscroll
font size
0
reset
how to read this tab
guitar tuner
edit
Autoscroll
slow
fast
+/-
esc
set tempo
stop
Author
the distance - cake
-------------------------------------------------------------------------------
Tabbed by: oriolesazb

Tuning: standard

Yea I like this song, and the other tab for this song is way 2 confusing...so i decided
to make my own. This song is basically three riffs just repeated in diff orders. So,
refer to the order at the bottom of this tab.


[Riff 1]

e|--------------------|
B|--------------------|
G|-4-5/7\5-4-2-4/5\4-2|
D|-5-7/9\7-5-4-5/7\5-4|
A|--------------------|
E|--------------------|(x4)


[Riff 2]

e|--------------------------------------------------------|
B|--------------------------------------------------------|
G|--------------------------------------------------------|
D|--------------------------------------------------------|
A|---------------------0-1-2---------------7^(8)-7-5------|
E|-0-0-0-0-0-0-0-3^(5)-------0-0-0-0-0-0-0-----------5^(7)|(x2)


[Riff 3]

e|------------------|
B|------------------|
G|------------------|
D|------------------|
A|-------7----------|
E|-7-5-3---3-4-5-6-7|(x3)


ORDER!

Riff 1
Riff 2
Riff 3
Riff 2
Riff 1
Riff 2
Riff 3
Riff 3
Riff 2
Riff 3
Riff 3
Riff 3

Thats it!

************************************

| /  slide up
| \  slide down
| ^() bend (string)

************************************

            
            
Suggest correction
Creating personal tab
Creating personal tab
You can edit any tab online and save it as your Personal.

You can edit, replace or remove any tab part or add personal notes – all changes will be seen only by you.

Personal tabs can be accessed anytime from any device, even offline.
Learn more »
comments
print report bad tab
3 comments total.
0 reply
The_blind_kid 10 Sep 15, 2006 06:18 AM

This tab looks okay i guess. thanks man.

0 reply
JukeB0X Hero 10 Jul 29, 2007 11:11 AM

^rofl! says "The blind kid"!
rlly is tho

guest
You may want to rate the tab now too:
select rating
Wanna post a correction for this tab? Suggest correction