Oops, an error
Loading. Please wait.

Wheels bass

version 1
version 1

Whole song

Interactive

by Cake
5,553 views 6 this week
2 commentsread comments
1 2 3 4 5
x 3
add to favorites
×
Save as Personal and add changes to this tab that will be seen only by you. Learn more ›
×
You can save this tab as Personal to edit and correct it or add notes. All changes will be seen only by you. Learn more »
launch autoscroll
font size
0
reset
guitar tuner
edit
Autoscroll
slow
fast
+/-
esc
set tempo
stop
Difficulty
intermediate
Wheels - Cake
Pressure cheif

Tabbed By: Bassman 17
e-mail: dewhite@ties2.com



bass verse 1
G|--------------------------------------------------------------------------|
D|-----------------------------------3-4-5--5-6-7---------------------------|
A|--------------5-6-7---7-7---5-6-7---------------7-------------------------|
E|--3-4-5-5-5---------7----------------------------5-5---------------------|

bass fill 1
G|--------------------------------------------------------------------------|
D|---------------------------------3-4-5--5-6-7-----------------------------|
A|--------------5-6-777-7---5---7---------------7---------------------------|
E|--3-4-555-5-----------------5-------------------5-5-----------------------|

bass verse 2 
G|--------------------------------------------------------------------------|
D|-------------------------------------3-4-5--5-6-7-------------------------|
A|----------------5-6-7---7-7---5-6-7---------------7-----------------------|
E|--3-4-5-3-5-5---------7-----------------------------5-5-------------------|

bridge
G|--------------------------------------------------------------------------|
D|--------------------------------------------------------------------------|
A|-----------------3-3------------------------------------------------------|
E|-3-4-5-5---0-0--------3-5-5-----------------------------------------------|

bass fill 2 
G|--------------------------------------------------------------------------|
D|-----------------------------------3-4-5--5-6-7---------------------------|
A|--------------5-6-7---7-7---5-6-7---------------7-------------------------|
E|--3-4-555-5---------7-----------------------------5-5---------------------|


ORDER
(guitar intro)
(0:12)bass verse 1 (3x)
(0:30)bass fill 1 
(0:36)bass verse 1 (2x)
(0:48)bridge
(0:54)bass verse 1 
(1:00)bass fill 1
(1:06)bass fill 2
(1:12)bass verse 1
(1:18)bass verse 2 (3x)
(1:35)bridge
(1:42)bass verse 1
(1:47)bass verse 2 (2x)
(2:00)bass verse 1
(2:05)bass verse 2 (3x)
(2:24)bridge
(2:30)bass verse 2 (2x)
(2:41)bass verse 1 (2x)
(2:53)bass verse 2 (3x)
(3:11)bass verse 1 (1x)

this is my first written tab, please comment on it

            
            
Suggest correction
Creating personal tab
Creating personal tab
You can edit any tab online and save it as your Personal.

You can edit, replace or remove any tab part or add personal notes – all changes will be seen only by you.

Personal tabs can be accessed anytime from any device, even offline.
Learn more »
Give kudos to tab author, rate the tab!
1 2 3 4 5
comments
print report bad tab
2 comments total.
0 reply
foster.getagrip 143 Nov 13, 2008 04:29 PM

Come, on. All this really needs is bass verse one and bridge. I don't get why there are other parts. It's all corerect, though

0 reply
joeMaybeRob 10 Mar 23, 2013 04:31 AM

It's NOT all correct though, even where it says verse 1 3x, all 3 of those riffs are (though slightly) different, and all three of them start on an open E, not a G. I think it's helpful to state the intent of the tab - i.e. if it is a rough sketch so you can play with a guitarist to cover the song, cool, this will do, but if it is to map out what the artist is playing note for note on the album...well you know, bass players love to change things up a little bit all.the.time....also never goes 3-4-5 on the D string, it's 4-5-6. Again, to the untrained ear this would probably suffice, but it isn't "correct"

guest
Wanna post a correction for this tab? Suggest correction