Oops, an error
Loading. Please wait.

Where Would I Be bass

version 1
version 1

Whole song

Interactive

by Cake
652 views 1 this week
no commentswrite comment
1 2 3 4 5
2 more votes to show rating
add to favorites
×
Save as Personal and add changes to this tab that will be seen only by you. Learn more ›
×
You can save this tab as Personal to edit and correct it or add notes. All changes will be seen only by you. Learn more »
launch autoscroll
font size
0
reset
guitar tuner
edit
Autoscroll
slow
fast
+/-
esc
set tempo
stop
This song seems to have two bass guitars. The main bass comes in in the middle of the intro.

Intro (Other bass):
G|-----4---5--4-2----------4---5--4-7-|
D|-2---------------5p4-2--------------|
A|------------------------------------|
E|------------------------------------|

Come in with the verse riff below for two iterations after the intro riff plays once. 
(Then play four iterations for the verse).

Verse:
G|--------0--------------------|
D|-2-2---2-2-0---2-2---2-2-----|
A|------2-----2-------2-----2--| x4
E|-----------------------------|


Chorus pt1:
G|--------------------------------|
D|--------------------------------|
A|--0-0---020-----0-0---0-0---0h2-|
E|-------0---3-0-------0----------|

G|---------0----------------|
D|--2-2---2-2-0---2-2---2-2-|
A|-------2-----2-------2----|
E|--------------------------|

G|-------------------------------------------|
D|------------------------------4-2----------|
A|--0-0---020---------------0-2-----4-1----2-|
E|-------0----3-0-3-3---0h3--------------2---|

=pause for trumpet=


Chorus pt2:
G|----------------------------------------------|
D|-2---2-0--------------------------------------|
A|---------2--------0h2-3-3-3-3-3-3-5-5-5-5-5-6-|
E|-----------3---3------------------------------|

G|---------------------------------------------|
D|-2---2-0-------------------------------------|
A|---------2-------0-2-3-3-3-3-3-3-5---5---2---|
E|-----------3---3-----------------------------|


Verse riff x4 (interlude)

Verse riff x4

Chorus pt1

Chorus pt2 x2

Intro repeats (come in with main bassline at same point)

Repeat and fade Verse riff
Suggest correction
Creating personal tab
Creating personal tab
You can edit any tab online and save it as your Personal.

You can edit, replace or remove any tab part or add personal notes – all changes will be seen only by you.

Personal tabs can be accessed anytime from any device, even offline.
Learn more »
Give kudos to tab author, rate the tab!
1 2 3 4 5
comments
print report bad tab
guest
You may want to rate the tab now too:
select rating
Wanna post a correction for this tab? Suggest correction