Oops, an error
Loading. Please wait.

Between Lust And Watching Tv bass

7 views 3 this week
no commentswrite comment
1 2 3 4 5
3 more votes to show rating
add to favorites
×
Save as Personal and add changes to this tab that will be seen only by you. Learn more ›
×
You can save this tab as Personal to edit and correct it or add notes. All changes will be seen only by you. Learn more »
launch autoscroll
font size
0
reset
guitar tuner
edit
Autoscroll
slow
fast
+/-
esc
set tempo
stop
Tabbed Tabbed by: 6METAL6BASSIST6
E-mail: petergriffinav@gmail.com

Tuning: EADG
 
This version. https://www.youtube.com/watch?v=o1a1isbTxD8

G|------------------------------------------------------------------------|
D|1-----------------------------------------------------------------------|
A|------------------------1-------------------------------------------0---|
E|------------------------------------------------1---------------3-------|

G|------------------------|
D|------------------------|
A|1-------------------0---|
E|------------1---3-------|

0:10

G|------------------------------------------------------------------------|
D|------------3-----------------------------------------------------------|
A|1-----------------------1-----------1---0-------------------3-----------|
E|--------------------------------------------3---1-----------------------|

G|------------------------------------------------------------------------|
D|------------------------------------------------------------3-----------|
A|------------3-------------------------------0---1-----------------------|
E|1-----------------------1-----------1---3-------------------------------|

0:22

G|------------------------------------------------------------------------------------------------|
D|------------3-----------------------3-------------------------------0---1-----------------------|
A|1-----------------------1-----------------------1-----------1---3-------------------1-----------|
E|------------------------------------------------------------------------------------------------|

G|------------------------------------------------------------------------------------------------|
G|1-----------1---0-------------------------------------------------------------------------------|
A|--------------------3---1-----------1---0---------------------------0---1-------------------0---|
E|--------------------------------------------3---1-----------1---3-------------------1---3-------|

0:37

G|------------------------------------------------------------------------|
D|------------3-----------------------------------------------------------|
A|1-----------------------1-----------1---0-------------------3-----------|
E|--------------------------------------------3---1-----------------------|

G|------------------------------------------------------------------------|
D|------------------------------------------------------------------------|
A|------------3-------------------------------0---1-------------------0---|
E|1-----------------------1-----------1---3-------------------1---3-------|

0:49

G|------------------------------------------------------------------------------------------------|
D|------------3-----------------------3-------------------------------0---1-----------------------|
A|1-----------------------1-----------------------1-----------1---3-------------------1-----------|
E|------------------------------------------------------------------------------------------------|

G|------------------------------------------------------------------------------------------------|
G|1-----------1---0---------------------------------------------------------------------------0---|
A|--------------------3---1-----------1---0---------------------------0---1-----------1---3-------|
E|--------------------------------------------3---1-----------1---3-------------------------------|

1:05

G|------------------------------------------------------------------------------------------------|
D|1-----------------------1-----------1---0-------------------3-------------------------------0---|
A|------------1-------------------------------3---1-----------------------1-----------1---3-------|
E|------------------------------------------------------------------------------------------------|

G|------------------------------------------------------------------------------------------------|
D|1-----------------------1-----------1---0-------------------------------------------------------|
A|------------1-------------------------------3---1-----------1---0---------------------------0---|
E|--------------------------------------------------------------------3---1-----------1---3-------|

1:21

G|------------------------------------------------------------------------------------------------|
D|------------3-------------------------------0---1-----------1-------------------------------0---|
A|1-----------------------1-----------1---3-------------------------------1-----------1---3-------|
E|------------------------------------------------------------------------------------------------|

G|------------------------------------------------------------------------------------------------|
G|1-----------1-------------------------------------------------------------------------------0---|
A|------------------------1-----------1---0---------------------------0---1-----------1---3-------|
E|--------------------------------------------3---1-----------1---3-------------------------------|

1:37

G|------------------------------------------------------------------------|
D|1-----------------------------------------------------------------------|
A|------------------------1-------------------------------------------0---|
E|------------------------------------------------1---------------3-------|

G|------------------------|
D|------------------------|
A|1-------------------0---|
E|------------1---3-------|

1:44

G|------------------------------------------------------------------------|
D|------------3-----------------------------------------------------------|
A|1-----------------------1-----------1---0-------------------3-----------|
E|--------------------------------------------3---1-----------------------|

G|------------------------------------------------------------------------|
D|------------------------------------------------------------------------|
A|------------3-------------------------------0---1-------------------0---|
E|1-----------------------1-----------1---3-------------------1---3-------|

1:56

G|------------------------------------------------------------------------------------------------|
D|------------3-----------------------3-------------------------------0---1-----------------------|
A|1-----------------------1-----------------------1-----------1---3-------------------1-----------|
E|------------------------------------------------------------------------------------------------|

G|------------------------------------------------------------------------------------------------|
G|1-----------1---0---------------------------------------------------------------------------0---|
A|--------------------3---1-----------1---0---------------------------0---1-----------1---3-------|
E|--------------------------------------------3---1-----------1---3-------------------------------|

2:12

G|------------------------------------------------------------------------------------------------|
D|1-----------------------1-----------1---0-------------------3-------------------------------0---|
A|------------1-------------------------------3---1-----------------------1-----------1---3-------|
E|------------------------------------------------------------------------------------------------|

G|------------------------------------------------------------------------------------------------|
D|1-----------------------1-----------1---0-------------------------------------------------------|
A|------------1-------------------------------3---1-----------1---0---------------------------0---|
E|--------------------------------------------------------------------3---1-----------1---3-------|

2:28

G|------------------------------------------------------------------------------------------------|
D|------------3-------------------------------0---1-----------1-------------------------------0---|
A|1-----------------------1-----------1---3-------------------------------1-----------1---3-------|
E|------------------------------------------------------------------------------------------------|

G|------------------------------------------------------------------------------------------------|
D|1-----------1-----------------------------------------------------------------------------------|
A|------------------------1-----------1---0---------------------------0---1-----------1---0-------|
E|--------------------------------------------3---1-----------1---3---------------------------3---|

G|----------------------------------------|
D|----------------------------------------|
A|--------------------0---1-----------1---|
E|1-----------1---3---------------1-------|
Suggest correction
Creating personal tab
Creating personal tab
You can edit any tab online and save it as your Personal.

You can edit, replace or remove any tab part or add personal notes – all changes will be seen only by you.

Personal tabs can be accessed anytime from any device, even offline.
Learn more »
Give kudos to tab author, rate the tab!
1 2 3 4 5
comments
print report bad tab
guest
You may want to rate the tab now too:
select rating
Wanna post a correction for this tab? Suggest correction