Oops, an error
Loading. Please wait.

Feast Of Wire album chords

310 views 1 this week
no commentswrite comment
1 2 3 4 5
2 more votes to show rating
add to favorites
×
Save as Personal and add changes to this tab that will be seen only by you. Learn more ›
×
You can save this tab as Personal to edit and correct it or add notes. All changes will be seen only by you. Learn more »
launch autoscroll
font size
0
reset
transpose
0
reset
simplify chords
display chords
guitar tuner
edit
Autoscroll
slow
fast
+/-
esc
set tempo
stop
Author
Difficulty
newg [tm] 49,829
intermediate
Strumming
There is no strumming pattern for this song yet. and get +5 IQ
~~~~~~~~~~~~~~~~~~~~~~~~~~~~~~~~~~~~~~~~~~~~~~~~~~~~~~~~~~~~~~~~~~~~~~~~~~~~~~~~~~~~~~~~~~~
|                                                                                         |
|    *****************                                                                    |
|    *   Calexico    *                                                                    |
|    *****************                                                                    |         
|                                                                                         |
|                                                                                         |
|                   Feast of Wire        (2003)                                           |
|                 ------------------                                                      |
|                                                                                         |
|                                                                                         |
|                                                                                         |
| E-mail: gwendal.mollo@orange.fr                                                         |
| Tabbed by: newg    (http://profile.ultimate-guitar.com/newg/)                           |
|                                                                                         |
|                                                                                         |
~~~~~~~~~~~~~~~~~~~~~~~~~~~~~~~~~~~~~~~~~~~~~~~~~~~~~~~~~~~~~~~~~~~~~~~~~~~~~~~~~~~~~~~~~~~

Tracklist :
0        Untitled    * 
1        Sunken Waltz            
2        Quattro (World Drifts In)   
3        Stucco   * 
4        Black Heart             
5        Pepita     *            
6        Not Even Stevie Nicks                   
7        Close Behind   * 
8        Woven Birds             
9        The Book and the Canal    *             
10       Attack el Robot! Attack!   *            
11       Across the Wire         
12       Dub Latina   * 
13       Güero Canelo            
14       Whipping the Horse's Eyes   * 
15       Crumble   *   
16       No Doze   *   
    
    * instrumental
~~~~~~~~~~~~~~~~~~~~~~~~~~~~~~~~~~~~~~~~~~~~~~~~~~~~~~~~~~~~~~~~~~~~~~~~~~~~~~~~~~~~~~~~~~~






----------------------------------------------------------------------------------------------------
                                     Calexico - Sunken Waltz
----------------------------------------------------------------------------------------------------

Album : Feast of Wire (2003)
Tempo : 3/4  75
E-mail: gwendal.mollo@orange.fr
Tabbed by: newg (thanls to Seb the Koala)


Intro:
     Am                                     
e |--0-----0-----0-----0-------------------|----------------------|
B |--1--------------3-----3--1-------------|----------------------|
G |--2-----------------------------2-------|--2----0--------------|     C C Em Am Am
D |--2-------------------------------------|------------3---3-2---|
A |--0-------------------------------------|----------------------|
E |----------------------------------------|----------------------|
                                                              

Am                    F         C
Washed my face in the rivers of empire
        F          C         G        G
Made my bed from a cardboard crate
     Em             Am      Am
Down in the city of Quartz
Am          F     C
No news, no new regrets
         F        C       G
Tossed a Susan B. over my shoulder
    F               Em       Dm
And prayed it would rain and rain
   F         Em            Dm
Submerge the whole western states
         C         F
Called a last fair deal 
        C        F
With an american zeal
    Em            Am     Am
and corporate handshake

Solo :
Am Am C C F C G G Em Am Am


Am                F         C
take the story of carpenter mike
                F             C        G
Who dropped his tools and his keys and left
    F             Em        Dm
And headed out as far as he could
         F          Em            Dm
past the cities and gated neighborhoods.
       C               F
And he slept neath the stars
      C            F         F
Wrote down what he dreamt
       C         F         Em        Am  Am
And he built a machine for no-one to see
          G            F            C
Then took flight first light of new morning

C




                  ~~~~~~~~~~~~~~~~~~~~~~~~~~~~~~~~~~~~




----------------------------------------------------------------------------------------------------
                                     Calexico - Quattro World Drifts In
----------------------------------------------------------------------------------------------------

Album : Feast of Wire (2003)
Tempo : 85
Tabbed by: chuchukuku

Bm
Love the run but not the race
Bm
All alone in a silent way
Em                                Bm
World drifts in and the world's a stranger
             G            D     Bm
In a light, eclipsed and alienated
          G               D
In a time, occupied and invaded
G                      F#                 Bm
Can't tell what's right, better hit the ground running
Bm
In the hills where the tall weed grows
Bm
Hands are tied and won't let go
Em                                                 Bm
Can't escape this place without leaving the world behind
          G                   D     Bm
In a light, ashamed and humiliated
                  G                D
In a time, sacrificed for the sake of trade
G                    A              D
The soul is bent, feels the weight of truth
Bm              G
Falling through
G           A                 D          Bm
Left behind, no choice but to run to the mountains
G                       A                         Bm
Where no poppies grow, you have to hit the ground running
Bm              G                   D   Bm
In a light, paralyzed and spirits fading
Bm                     G                  D
Out of time, must decide to fall or run
G           A          D                     Bm
Into the eye, of the storm no sign or omen
G             A                   D
Make it right, or fall to the other side
                 Bm     G
Where fields are burning
                       A
From the day you're born
                           Bm
We always hit the ground running.




                  ~~~~~~~~~~~~~~~~~~~~~~~~~~~~~~~~~~~~




-------------------------------------------------------------------------------
                              Calexico - Black Heart
-------------------------------------------------------------------------------
Album : Feast of Wire (2003)
Tempo : 62
E-mail: gwendal.mollo@orange.fr
Tabbed by: newg

Check my guitar pro tab for more.

Capo 3 

intro:
Am F x4

Verse :
Am               F
Spring is frozen now I'm stuck in low
Am                 F
Wrapped with wire, tapped to the heart
Am                     F
 Can't find no poison, now I've got no cure
Am                        F      Am
fangs are stuck inside my skin

     G     D      Am
     Payne county line     
     G        D      Am
     Watching unjust claims
     G          D       Am                                         
     One man's righteousness is another man's
     C       Em  C                Em      
     Long haul,  sentence carried out
     C        Em  D
      Long haul,  counting the miles, to the four corners of the world

Am F  (with riff) x2

Am                     F
Spring is rusted shut, faith's coiled and cracked
      Am                          F
Apparitions worth their weight in gold
Am                    F
  Scratched in metal, name erodes away
Am                                   F                         Am
 Hands are scarred, heart is charred, Burnt though, and ashen

     G       D          Am
     Trip on fence post line
     G       D             Am
     Sifting through the remains
     G         D        Am
     One man's close pursuit is another man's
     C             Em   C                      Em
       Last chance,     make it through the divide
     C             Em   D
       Last chance,     suffer the weight or get buried by this
     C             Em   C                 Em
     Black heart,       sweeping over the land
     C             Em   D
     Black heart,       crawling it's way, To the four corners of the world

[Outro]
Am F x4
Riff x4


* * * * * * * * * * * * * * * * * * * * * *  *

   Am                F
e|----------------|----------------|
B|----------------|----------------|
G|--2----2----2---|--2----2----2---|
D|----2----2----2-|----3----3----3-|
A|----------------|----------------|
E|----------------|----------------|

Riff :
   Am                 F
e|------------------------|
B|------------------------|
G|------------------------|
D|---------------2----3---|
A|--0----2-3--------------|
E|------------------------|




                  ~~~~~~~~~~~~~~~~~~~~~~~~~~~~~~~~~~~~




-------------------------------------------------------------------------------
                              Calexico - Not Even Stevie Nicks
-------------------------------------------------------------------------------
Album : Feast Of Wire (2003)
Tempo : 124
E-mail: gwendal.mollo@orange.fr
Tabbed by: newg

A/F# : 2x2220  Asus2 : x02200  Esus4 : 022200

A/F# A Asus2

       A/F#           A
With a head like a vulture 
    A/F#          A
And heart full of hornets 
   A/F#            A
He drives off the cliff 

         E     Esus4
Into the blue,         x2

    A/F#     A
Not even the priestess 
With her wrenches and secret powers 
Could save him from danger 

              E     Esus4
For a little while,              x2
E           Esus4          E
   Not even she could save him   x2


       A/F#           A
With a head like a vulture 
And heart full of hornets 
He drives off the cliff 

         E     Esus4
Into the blue,         x2
E           Esus4          E
   Not even she could save him   x2

      A/F#           A
Found him inside the motor




                  ~~~~~~~~~~~~~~~~~~~~~~~~~~~~~~~~~~~~




-------------------------------------------------------------------------------
                              Calexico - Woven Birds 
-------------------------------------------------------------------------------
Album : Feast Of Wire (2003 )
Tempo : 3/4  144
E-mail: gwendal.mollo@orange.fr
Tabbed by: newg

F/A  : x0321x
Bm/D : x5443x
  
  Chorus Riff :
e|--------------------------|
B|------------8-------------|
G|---------------10-9-7-----|
D|--7--9--10----------------|
A|--------------------------|
E|--------------------------|  

Intro :
F/A

F/A
The plaza in the village
      G     
Where mission bells used to ring
   F                                    F/A
Is now crumbled to a pile of stench and ruin

Even the swallows have vanished
    G
no longer return in the spring
        F                               F/A
All the blossoms are buried ,'neath the waste

G
Out of the shadows grow hatred
          F
Along the corridor crawls fear
G
Crushed by the promise of hope
             F/A
That never returned  

Bm/D           A#
Watched with a hawk's trained eye

[Chorus]
Am    Em   C  G   Dm
Trees grow silent fruit
Am    Em C   G     Dm
'neath a suffering sky

F/A
Those who have stayed, keep a flame
In memory of the fallen
And pass on the old rites despite the risk
But many more have left here
On mended broken wings

F/A
Turning to see your reaction
  G
A tear drop fills your eye
    F
But you protest not to give up as give in
F/A
Heading straight for the wreckage
G
Picking up a shovel and a hoe
      F                              F/A
Start putting back the bricks one by one

G
Numbers come out of the woodwork
F
Curious to see the rebirth
Bm/D      A#
Above the swollen clouds

[Chorus]
   Am     Em    C     G   Dm 
A strange sound fills the air
  Am Em   C  G  Dm
A silence never heard 
Am  Em  C    G       Dm
Falling like blessed rain
F/A
And the swallows return




                  ~~~~~~~~~~~~~~~~~~~~~~~~~~~~~~~~~~~~




-------------------------------------------------------------------------------
                            Calexico - Across The Wire
-------------------------------------------------------------------------------
Album : Feast of Wire (2003)
Tempo : 3/4 108
E-mail: gwendal.mollo@orange.fr
Tabbed by: newg

Intro / verse :

    C  C/B  C/A# G              C
e|---------------2---------------------|
B|---------------2--------------1------|
G|---------------0--------------0------|
D|---------------0-----3--2--0--2------|
A|--3---2---0----2--------------3------|
E|---------------3---------------------|

[Intro]
G G C C  
G G C C    

[Verse]
  C                                         G
Alberto hits his brother on the back of the head
G                                      C
looks to the north as he starts to get up
C                                                G
brother's still sleepy, grumbles "it's not light yet,"
    G                                         C 
"if you want a new life, what's a few minutes wait?"

[Chorus]
                F                 C
darkness on the road and over the land
         G                   C
into the laws and out of the hands
                  F                     C
from those with so much, and no show of heart
                    G      G                   C          C
you'd think it'd be crazy,   mmm..to ask for a small part

[Bridge]
G G C C  
G G C C 

[Verse] 
C                                   G
spotted an eagle in the middle of a lake
G                                 C
resting on cactus and feasting on snakes
    C                                G
The waters recede as the dump closes in
  G                                    C
revealing a whole lake of sleeping children

[Chorus]
              F                        C
poison in the stream that flows to the sea
           G                       C
out on the waves that crash within reach
              F                  C
Those with so much, so little to fear
                    G     G                C
you'd think it'd be crazy,   to be so far away, yet so near

[Bridge]
Dm          F            Am         C
some say, a new day will shine here    Mmmm
Dm         F              E          F            F
On these catastrophes and horrors of misfortune    Mmmmm
               C
all across the wire

[Verse]
  C                      C  C/B C/A#  G
Alberto y Hermano on the co.yo..te's  trail
         G                    C
Mmmm and dodging the border patrol
C                                   G
out in the wastelands wandering for days
    G                                   C
the future looks bleak with no sign of change

[Chorus]
                F                C
darkness in the eye, down in the soul
               G                    C
all across the wire, to those in control
            F                    C
holding so much, with no show of heart
                   G     G                       C
you think it'd be crazy,   Mmmm  to watch it all fall apart
    F            G    C
Oh  watch it all fall apart 

C





                  ~~~~~~~~~~~~~~~~~~~~~~~~~~~~~~~~~~~~




----------------------------------------------------------------------------------------------------
                         Calexico - Guero Canelo
----------------------------------------------------------------------------------------------------

Album : Feast Of Wire
Tempo : 85
E-mail: gwendal.mollo@orange.fr
Tabbed by: newg    (http://profile.ultimate-guitar.com/newg/)


Bass :
G |---------------------------------------------------|------------------------------------------------|
D |---------------------------------------------------|------------------------------------------------|
A |---------------------------------------------------|------------------------------------------------|
E |--0----------3s-5-----7-------0g--------3s-5---7---|--8--------10-12----------7--------8--10--------|



Guitar :
                                                        
E |----------------------------------------------------|
B |----------------------------------------------------|
G |----------------------------------------------------|
D |----------------------------------------------------|
A |-----------------2--5-----5--5--5-----3--2-----0----|
E |--0--0-----0--4-------------------------------------|

                                                     
----------------------------------------------------|
----------------------------------------------------|
----------------------------------------------------|
--------------0--2--2--2--2--2-----0----------------|
--0-----3--------------------------------3--2-------|
----------------------------------------------------|

                                                     
----------------------------------------------------|
----------------------------------------------------|
----------------------------------------------------|
-----------------------0-----0--0--0----------------|
-----------------2--------------------3--2--0L------|
--0--0-----0--4-------------------------------------|

                             
----------------------------|
----------------------------|
----------------------------|
--2-------------------------|
--0-------------------------|
--------------0--2--4--5----|

                                                     
----------------------------------------------------|
----------------------------------------------------|
----------------------------------------------------|
----------------------------------------------------|
--------------2--5-----5--5--5-----3--2--------0----|
--0--0--0--4----------------------------------------|

                                                     
----------------------------------------------------|
----------------------------------------------------|
----------------------------------------------------|
--------------0--2--2--2--2--2-----0----------------|
--0-----3--------------------------------3--2-------|
----------------------------------------------------|

                                            ^
----------------------------------------------------|-------|
----------------------------------------------------|-------|
--------------------------------------------2L------|--2----|
-----------------------0-----0--0--0--------2L------|--2----|
-----------------2--------------------3--2--0L------|--0----|
--0--0-----0--4-------------------------------------|-------|  Repeat ....


Jump, scrape, break the switches 
Coast low wit da bitches 
Funky pop, drop 'n hop 
Here come the cops 
Güero canelo 

Gangs, guns, knives, thugs 
Chumps, chops, chill, chug 
Drink malt, smoke mota 
I like you mucho 
Dame un beso 

Soma, valium, oxycontin 
Reds, whites, speed, vicodin 
T's, b's, thorazine 
Screamers, pleasers 
Güero canelo 

Freak, tweek, week 2 week 
Kneel, feel, seek the geek 
Pump da bass in yo' face 
Contrabasso 
How low can you go? 

Belladonna, mescaline 
Psylocibin, peyote 
Mda and dnt spells ecstasy 
Güero canelo 

Coil spring, bounce, crank 
Pumps, shocks, struts, tanks 
Psychoactive electroplade 
It's necesito 
Dame un beso 

Impala, caddy 
El dorado, comet 
Galaxy, el camino 
Chevelle, caprice 
Monte carlo 
So low six fo' 
How low can you go? 

Tweezer, teaser, tiger weezer 
Rusty, crusty, skuzzy skeezer 
Chuy, chata, cholo, chico 
Flaco, chucho 
Only at pueblo 
Molé y güero canelo 

Güero canelo 
Güero canelo 








            
            
Suggest correction
Creating personal tab
Creating personal tab
You can edit any tab online and save it as your Personal.

You can edit, replace or remove any tab part or add personal notes – all changes will be seen only by you.

Personal tabs can be accessed anytime from any device, even offline.
Learn more »
Give kudos to tab author, rate the tab!
1 2 3 4 5
comments
print report bad tab
guest
You may want to rate the tab now too:
select rating
Wanna post a correction for this tab? Suggest correction