Oops, an error
Loading. Please wait.

Por Fin Te Encontre tab

8,146 views 30 this week
no commentswrite comment
1 2 3 4 5
2 more votes to show rating
add to favorites
×
Save as Personal and add changes to this tab that will be seen only by you. Learn more ›
×
You can save this tab as Personal to edit and correct it or add notes. All changes will be seen only by you. Learn more »
launch autoscroll
font size
0
reset
how to read this tab
guitar tuner
edit
Autoscroll
slow
fast
+/-
esc
set tempo
stop
Author
-------------------------------------------------------------------------------
                             Por fin te encontre - Cali y El Dandee
-------------------------------------------------------------------------------
Tabbed by:ffgdcpzae
Email:....gmail.com

Tuning:eBGDAE

___________________________________________________________________________________________________________

*ESTA ES LA VERSION DEL VIDEO*

Aca esta el video: https://www.youtube.com/watch?v=_kxz7WX4mLU

No he podido sacar la guitarra de fondo del coro :(

No he podido sacar la parte del minuto 2:51 al 2:55 :(

La cancion utiliza una guitarra con capo en el 2do traste y siempre lleva el mismo patron

Estos son los acordes utilizados:

F#m, D, A, E 

En ese orden

___________________________________________________________________________________________________________

Intro

  0:03                    0:06                0:09              0:12              0:14              
e|-----------------------|-------------------|-----------------|-----------------|---------9-7-6-7-|
B|---------------2-4/7-4-|---4-7-7-7-5-4-4/5-|-------5-7-5-4---|-----------------|-----------------|
G|-4-3-1---1-3-4---------|-6-----------------|-----4---------4-|-8-6-4-6-6-6-6-6-|---8-6-4---------|
D|-------4---------------|-------------------|---6-------------|-x-----4-4-4-4-4-|-4---------------|
A|-----------------------|-------------------|-7---------------|-x---------------|-----------------|
E|-----------------------|-------------------|-----------------|-----------------|-----------------|

  0:16              0:19              0:22
e|-----------------|-----------------|---------------------|
B|-------4-5-7-7/9-|-------5-7-5-4---|---------------------|
G|-----4-----------|-----4---------4-|---4-6-6/8-8\6-6-4-3-|
D|---6-------------|---6-------------|-4-------------------|
A|-6---------------|-7---------------|---------------------|
E|-----------------|-----------------|---------------------|

Entran voces "Ohoh hee ouoh"

  0:27                      0:30                       0:32                 0:35
e|-11-11-11-9-9------------|-12-12-12-11-11-11-9------|-11-11-11-9-9-9-7---|-9-9-9-7-7-7-6-4---|
B|--------------12-12-11-9-|---------------------12-9-|------------------7-|-----------------7-|
G|-------------------------|--------------------------|--------------------|-------------------|
D|-------------------------|--------------------------|--------------------|-------------------|
A|-------------------------|--------------------------|--------------------|-------------------|
E|-------------------------|--------------------------|--------------------|-------------------|


Entra voz cantando "Si tú supieras que por ti me muero"

  0:42      0:43                0:47                0:52         
e|---------|------------------|---------9-7-6-7---|---------|
B|-------9-|------------------|-----------------9-|-------9-|
G|-----9---|-11-11-11-11-9--8-|---8-6-4-----------|-----9---|
D|---9-----|-11-11-11-11-11-9-|-4-----------------|---9-----|
A|-7-------|------------------|-------------------|-7-------|
E|---------|------------------|-------------------|---------|



Coro #1 (0:58 - 1:19) Acordes (Capo 2do traste): F#m, D, A, E



Parte de Juan Magan

  1:30                  1:33              1:35              1:38        1:51
e|-------------------2-|---2-2-2-2-0---0-|-----------------|-----------|-----------------|
B|---------------2-4---|-4-----------4---|-------5-7-5-4---|-----------|-2-0-----0-------|
G|-4-3-1---1-3-4-------|-----------------|-----4---------4-|-8-6-4-6-6-|-----3-1---3-1---|
D|-------4-------------|-----------------|---6-------------|-x---------|---------------4-|
A|---------------------|-----------------|-7---------------|-x---------|-----------------|
E|---------------------|-----------------|-----------------|-----------|-----------------|

Estrofa "por fin te encontre"

  2:25                      2:27                       2:30                 2:33
e|-11-11-11-9-9------------|-12-12-12-11-11-11-9------|-11-11-11-9-9-9-7---|-9-9-9-7-7-7-6-4---|
B|--------------12-12-11-9-|---------------------12-9-|------------------7-|-----------------7-|
G|-------------------------|--------------------------|--------------------|-------------------|
D|-------------------------|--------------------------|--------------------|-------------------|
A|-------------------------|--------------------------|--------------------|-------------------|
E|-------------------------|--------------------------|--------------------|-------------------|

                                             Segunda guitarra al final del ultimo "Yo por fin te encontre"(2:34)
                                                                          e|-----------------|
                                                                          B|-----------------|
                                                                          G|-4-3-1---4-3-1---|
                                                                          D|-------4-------4-|
                                                                          A|-----------------|
                                                                          E|-----------------|

"si tu supieras que por ti me muero"
 
  2:39      2:41               2:44                            2:50
e|---------|------------------|---------------------9-7-6-7---|---------|
B|-------9-|------------------|-----------------------------9-|-------9-|
G|-----9---|-11-11-11-11-9--8-|---------------8-6-4-----------|-----9---|
D|---9-----|-11-11-11-11-11-9-|-(4-4-4-4-4)-4-----------------|---9-----|
A|-7-------|------------------|-------------------------------|-7-------|
E|---------|------------------|-------------------------------|---------|



Coro #2 (2:56 - 3:167) Acordes (Capo 2do traste): F#m, D, A, E



Esto va despues del rap de Cali
 
                                      En esta parte entra Juan Magan  
  3:33                3:36            3:41            3:51
e|-------------------|---------------|-------9-7-6-7-|-----------------|
B|-----------7-7/9-9-|-------7-5-4---|---------------|-2-0-----0-------|
G|-------6-8---------|-------------4-|-8-6-4---------|-----3-1---3-1---|
D|-6-8-9-------------|-6-8-9---------|---------------|---------------4-|
A|-------------------|---------------|---------------|-----------------|
E|-------------------|---------------|---------------|-----------------|


Final

  4:25                      4:27                       4:30                 4:33
e|-11-11-11-9-9------------|-12-12-12-11-11-11-9------|-11-11-11-9-9-9-7---|-9-9-9-7-7-7-6-4---|
B|--------------12-12-11-9-|---------------------12-9-|------------------7-|-----------------7-|
G|-------------------------|--------------------------|--------------------|-------------------|
D|-------------------------|--------------------------|--------------------|-------------------|
A|-------------------------|--------------------------|--------------------|-------------------|
E|-------------------------|--------------------------|--------------------|-------------------|

                                             Segunda guitarra al final del ultimo "Yo por fin te encontre"(2:34)
                                                                          e|-----------------|
                                                                          B|-----------------|
                                                                          G|-4-3-1---4-3-1---|
                                                                          D|-------4-------4-|
                                                                          A|-----------------|
                                                                          E|-----------------|

            
            
Suggest correction
Creating personal tab
Creating personal tab
You can edit any tab online and save it as your Personal.

You can edit, replace or remove any tab part or add personal notes – all changes will be seen only by you.

Personal tabs can be accessed anytime from any device, even offline.
Learn more »
Give kudos to tab author, rate the tab!
1 2 3 4 5
comments
print report bad tab
guest
You may want to rate the tab now too:
select rating
Wanna post a correction for this tab? Suggest correction