Oops, an error
Loading. Please wait.

Calibre bass

version 1
version 1

Whole song

Interactive

by Calibre
150 views 1 this week
no commentswrite comment
1 2 3 4 5
3 more votes to show rating
add to favorites
×
Save as Personal and add changes to this tab that will be seen only by you. Learn more ›
×
You can save this tab as Personal to edit and correct it or add notes. All changes will be seen only by you. Learn more »
launch autoscroll
font size
0
reset
guitar tuner
edit
Autoscroll
slow
fast
+/-
esc
set tempo
stop
Difficulty
Artist: .calibre
Song: calibre
Album: Kill The Logo

Tab: Bass
written and composed by .calibre



                                                            
G||------|------|------|------||---------------------------|
D||------|------|------|------||*------------------2--4----|
A||------|------|------|------||*--4---4-4---4-4---------0-|
E||------|------|------|------||---------------------------|


                                                      
--------------------------|--------------------------|
--------------------------|--------------------------|
--4---4-4---4-4------0----|--------------------------|
------------------2-----2-|--5---5-5---5-5---4--4--0-|


                                                                       
---------------------------||-------------------|---------------------|
--------------------------*||-------------------|---------------------|
------------------2--2--0-*||-------------------|--4--------------16--|
--5---5-5---5-5------------||--5----------------|---------------------|


                                                                          
----------------------------------|-------------------|------------------|
-----------14--16--16-18--16--14--|-------------------|------------------|
-----14h16------------------------|-------------------|------------------|
----------------------------------|--5----------------|------------------|


                                                                                
---------------------|------------------|-------------------|------------------|
---------------------|------------------|-------------------|------------------|
--4--------------16--|------------------|-------------------|------------------|
---------------------|------------------|--5----------------|------------------|


                                                                        
-----------------------|-----------------------|-----------------------|
-----------------------|-----------------------|-----------------------|
--4---4-4---4-4--------|--4---4-4---4-4--------|-----------------------|
-----------------------|-----------------------|--5---5-5---5-5--------|


                                                                        
-----------------------|-----------------------|-----------------------|
-----------------------|-----------------------|-----------------------|
-----------------------|--4---4-4---4-4--------|--4---4-4---4-4--------|
--5---5-5---5-5--------|-----------------------|-----------------------|


                                                                             
-----------------------|-----------------------||---------------------------|
-----------------------|-----------------------||*------------------2--4----|
-----------------------|-----------------------||*--4---4-4---4-4---------0-|
--5---5-5---5-5--------|--5---5-5---5-5--------||---------------------------|


                                                      
--------------------------|--------------------------|
--------------------------|--------------------------|
--4---4-4---4-4------0----|--------------------------|
------------------2-----2-|--5---5-5---5-5---4--4--0-|


                                                
--------------------------||-------------------|
-------------------------*||-------------------|
-------------x-2~--x-2~--*||-------------------|
--5---5-5-----------------||--5----------------|


                                                                  
|--------------------------------|-------------------------------|
|*-----------------------2-2-4-4-|-------------------------------|
|*--4-4--4-4-4--4-4-4--4---------|--4-4--4-4-4--4-4-4--4-----0-0-|
|--------------------------------|-----------------------2-2-----|


                                                               
-------------------------------|-----------------------------||
-------------------------------|----------------------------*||
-------------------------------|----------------x-2~--x-2~--*||
--5-5--5-5-5--5-5-5--5-4-4-4-4-|--5-5--5-5-5--5--------------||


                                                                             
-------------------|---------------------|----------------------------------|
-------------------|---------------------|-----------14--16--16-18--16--14--|
-------------------|--4--------------16--|-----14h16------------------------|
--5----------------|---------------------|----------------------------------|


                                                                                
-------------------|------------------|---------------------|------------------|
-------------------|------------------|---------------------|------------------|
-------------------|------------------|--4--------------16--|------------------|
--5----------------|------------------|---------------------|------------------|


                                                               
-------------------|------------------|-----------------------|
-------------------|------------------|-----------------------|
-------------------|------------------|--4---4-4---4-4--------|
--5----------------|------------------|-----------------------|


                                                                        
-----------------------|-----------------------|-----------------------|
-----------------------|-----------------------|-----------------------|
--4---4-4---4-4--------|-----------------------|-----------------------|
-----------------------|--5---5-5---5-5--------|--5---5-5---5-5--------|


                                                                        
-----------------------|-----------------------|-----------------------|
-----------------------|-----------------------|-----------------------|
--4---4-4---4-4--------|--4---4-4---4-4--------|-----------------------|
-----------------------|-----------------------|--5---5-5---5-5--------|


                                                                                
-----------------------||---------------------------|--------------------------|
-----------------------||*------------------2--4----|--------------------------|
-----------------------||*--4---4-4---4-4---------0-|--4---4-4---4-4------0----|
--5---5-5---5-5--------||---------------------------|------------------2-----2-|


                                                       
--------------------------|--------------------------||
--------------------------|-------------------------*||
--------------------------|-------------x-2~--x-2~--*||
--5---5-5---5-5---4--4--0-|--5---5-5-----------------||


                                                             
--------------------------||--------------------------------|
--------------------------||*-----------------------2-2-4-4-|
--------------------------||*--4-4--4-4-4--4-4-4--4---------|
--5---5-5---5-5---5--5--5-||--------------------------------|


                                                                
-------------------------------|-------------------------------|
-------------------------------|-------------------------------|
--4-4--4-4-4--4-4-4--4-----0-0-|-------------------------------|
-----------------------2-2-----|--5-5--5-5-5--5-5-5--5-4-4-4-4-|


                                                               
-----------------------------||-------------------------------|
----------------------------*||-------------------------------|
----------------x-2~--x-2~--*||-------------------------------|
--5-5--5-5-5--5--------------||--5-5--5-5-5--5-5-5--5-4-4-4-4-|


                                                                           
------------------------|------------------------|------------------------|
------------------------|------------------------|------------------------|
--4--2-4-------4--2-4---|--4--2-4-------4--2-4---|--7--5-7-------7--5-7---|
------------------------|------------------------|------------------------|


                                                       
---------------------|--------------------------------|
---------------------|--------------------------------|
--2--0-2-------------|--4--2-4--4-4-4-4-4-4-4-4-4-4-4-|
---------------------|--------------------------------|


                                                                  
--------------------------------|--------------------------------|
--------------------------------|--------------------------------|
--4--2-4--4-4-4-4-4-4-4-4-4-4-4-|--7--5-7--7-7-7-7-7-7-7-7-7-7-7-|
--------------------------------|--------------------------------|


                                                                 
-------------------------|-------------------|------------------|
-------------------------|-------------------|------------------|
--7--0-2-----x-0---x-2---|--4----------------|------------------|
-------------------------|-------------------|------------------|


                                                                      
--------------------|------------------------------------------------|
--------------------|------------------------------------------------|
--16----------------|---14h16-16-14h16-16-14h16-16-14h16-16-14h16-16-|
--------------------|------------------------------------------------|


                                                                             
-------------------|------------------|------------------|------------------|
-------------------|------------------|------------------|------------------|
--4----------------|------------------|------------------|------------------|
-------------------|------------------|------------------|------------------|


                                                      
--------------------------|--------------------------|
------------------2--4----|--------------------------|
--4---4-4---4-4---------0-|--4---4-4---4-4------0----|
--------------------------|------------------2-----2-|


                                                      
--------------------------|--------------------------|
--------------------------|--------------------------|
--------------------------|------------------2--2--0-|
--5---5-5---5-5---4--4--0-|--5---5-5---5-5-----------|


                                                      
--------------------------|--------------------------|
------------------2--4----|--------------------------|
--4---4-4---4-4---------0-|--4---4-4---4-4------0----|
--------------------------|------------------2-----2-|


                                                                            
--------------------------|--------------------------||--------------------|
--------------------------|--------------------------||*-------------------|
--------------------------|------------------2--2--0-||*-------------------|
--5---5-5---5-5---4--4--0-|--5---5-5---5-5-----------||---5----------------|


                                                              
-------------------|-------------------|--------------------||
-------------------|-------------------|-------------------*||
-------------------|--4----------------|--4----------------*||
--5----------------|-------------------|--------------------||


                                       
------------------|------------------||
------------------|------------------||
------------------|------------------||
------------------|------------------||



            
            
Suggest correction
Creating personal tab
Creating personal tab
You can edit any tab online and save it as your Personal.

You can edit, replace or remove any tab part or add personal notes – all changes will be seen only by you.

Personal tabs can be accessed anytime from any device, even offline.
Learn more »
Give kudos to tab author, rate the tab!
1 2 3 4 5
comments
print report bad tab
guest
Wanna post a correction for this tab? Suggest correction