Oops, an error
Loading. Please wait.

Dime Adios tab

21 views 1 this week
no commentswrite comment
1 2 3 4 5
3 more votes to show rating
add to favorites
×
Save as Personal and add changes to this tab that will be seen only by you. Learn more ›
×
You can save this tab as Personal to edit and correct it or add notes. All changes will be seen only by you. Learn more »
launch autoscroll
font size
0
reset
how to read this tab
guitar tuner
edit
Autoscroll
slow
fast
+/-
esc
set tempo
stop
Pues he aquí una excelente canción escúchenla bien y saldrá perfecta.

Introducción

 F-G      C                       Em              F
E-----------------------------------------------------
B-------------------------------------8-----------6---
G----3/5--5-----5--7--7/9--7--5--7/9-----9-----9------
D-----------------------------------------------------
A-----------------------------------------------------
E-----------------------------------------------------

                      G               C
E--------------------------------------------------------------
B---6--8--8/10--8--6--8------6--5--3--1---1--3--3/5---3--1-----
G--------------------------------------------------------------
D--------------------------------------------------------------
A--------------------------------------------------------------
E--------------------------------------------------------------

    Em             F                       G            C
E------3-------------------------------------------------------
B-3/5-----5-----5--6-----6--8--8/10--8--6--8------6-5-3-1------
G--------------------------------------------------------------
D--------------------------------------------------------------
A--------------------------------------------------------------
E--------------------------------------------------------------
                                                           Estoy...
*FIGURA
  Am               F
E------------------------
B----3/5--3--1--0--1-----
G------------------------
D------------------------
A------------------------
E------------------------


                      F                 F-F#-G
 ..... cansado de decirte que te quiero
                     F           C   F-G
 Estoy cansado de decirte que te amo
C                     F                  F-F#-G
 Si tu no quieres el amor que yo te tengo
                        F         C   F-G
 Tan solo vete y deja libre mi camino
C                          Em               F
 Por que con migo no encontraste tu destino
                            G F-G
 Y yo con tigo ya no soy feliz


F              G
 Dime adiós y déjame
F             Am   *FIGURA
 Dime adiós y vete
F              G
 Dime adiós y déjame
F             Am    F-G
 Dime adiós y vete


Comienza el solo:

            C                               Em
E-----------------------------------------------15------
A---11/13--13-----13--15--15/17--15--13--15/17------17--
D-------------------------------------------------------
G-------------------------------------------------------
B-------------------------------------------------------
E-------------------------------------------------------

        F                            G                  C
E-------------------------------------------------------------------
B--17---18----18--20--20/22--20--18--20----18--17--15--13----13--15-
G-------------------------------------------------------------------
D-------------------------------------------------------------------
A-------------------------------------------------------------------
E-------------------------------------------------------------------

                    Em                 F
E-----------------------15------------------------------------------
B-15/17--15--13--15/17------17-----17--18-----18--20--20/22--20--18-
G-------------------------------------------------------------------
D-------------------------------------------------------------------
A-------------------------------------------------------------------
E-------------------------------------------------------------------

   G                  C                                     Em
E-------------------------------------------------------------------
B--20---18--17--15/---8-8-8-6/8--8-8-8---8-8-8-6/8--8-8-8---5---3-5-
G-------------------------------------------------------------------
D-------------------------------------------------------------------
A-------------------------------------------------------------------
E-------------------------------------------------------------------

       F                                      G
E-------------------------------------------------------------------
B--5---6-6-6--5-5-5--3-3-3--1-1-1--3----5/----8-8-8--6-6-6--5-5-5---
G-------------------------------------------------------------------
D-------------------------------------------------------------------
A-------------------------------------------------------------------
E-------------------------------------------------------------------

                        C                        Em
E---------------------------------------------------3---------------
B--3-3-3--3/5--3--1--0--1-----1--3--3/5--3--1--3/5-----5------------
G-------------------------------------------------------------------
D-------------------------------------------------------------------
A-------------------------------------------------------------------
E-------------------------------------------------------------------

       F                    G               C
E----------------------------------------------------
A---5--6--6--8--8/10--8--6--8---------6-5-3-1--------
D----------------------------------------------------
G----------------------------------------------------
B----------------------------------------------------
E----------------------------------------------------
                                               Esos momentos

        F                F-F#-G
 Tan felices que pasamos
                          F
 Con tus reproches y tus celos
           G   F-G
 Se an borrado

C                        Em               F
 Hoy tus caricias me lastiman en el pecho
                         G  F-G
 Y tus besos me saben a hiel

F              G
 Dime adios y dejame
F              Am  *FIGURA
 Dime adios y vete
F              G
 Dime adios y dejame
F                 C    F-G C
 Dime adios... y vete


Dedico esta transcripcion a Julieta, no te olvidare.
Y saludos a la Facultad de Ingenieria al Kawa y toda la banda.
Quejas, Sugerencias y/o comentarios: al_rockd@

            
            
Suggest correction
Creating personal tab
Creating personal tab
You can edit any tab online and save it as your Personal.

You can edit, replace or remove any tab part or add personal notes – all changes will be seen only by you.

Personal tabs can be accessed anytime from any device, even offline.
Learn more »
Give kudos to tab author, rate the tab!
1 2 3 4 5
comments
print report bad tab
guest
Wanna post a correction for this tab? Suggest correction