Oops, an error
Loading. Please wait.

No Te Voy A Olvidar tab

20 views 3 this week
no commentswrite comment
1 2 3 4 5
3 more votes to show rating
add to favorites
×
Save as Personal and add changes to this tab that will be seen only by you. Learn more ›
×
You can save this tab as Personal to edit and correct it or add notes. All changes will be seen only by you. Learn more »
launch autoscroll
font size
0
reset
how to read this tab
guitar tuner
edit
Autoscroll
slow
fast
+/-
esc
set tempo
stop
Intro:

   G  D Em                G  D Em
E--3-------I-----------I--3-------
A--5--5-7--I--5/7/5/7--I--5--5-7--
D--5--7-9--I--7/9/7/9--I--5--7-9--    X2
G-----7-9--I--7/9/7/9--I-----7-9--
B----------I-----------I----------
e----------I-----------I----------

         G              D
Me enamore, de tus ojos cafes
                 C
De tu tierna sonrisa
D              G     ...pausa
De tus labios de miel
          G                   D
Nunca pense, que me podia enamorar
                      C
Pero ahora que no te tengo
                 D              G   G7
Presiento que nunca te voy a olvidar

        C            D             Bm
Como olvidar, tu sonrisa bajo la lluvia
             Em
Caminando deprisa
         C          D                 G      G7
Por las calles solitarias, abrazados los dos
        C           D               Bm
Como olvidar, esas noches que de caricias
           Em
Hicimos derroches
        D             C
Sin pensar que algun dia
                 G   ...pausa
Se tendria que acabar


1er Solo....G-D-C-D-G  X2

E-------------------------------------------
A--------------------------------------7-5--
D--/5--5-7/9-7-5-7^--7/5-5--5-4--4h5-4------
G-------------------------------------------
B-------------------------------------------
e-------------------------------------------

E----------------------------------------------------------------------
A----------------------------------------------------------------------
D----------------------------------------------------------------------
G---------------------------------------9----9----9--------------------
B--/8-8--12-10h8h10--10/12-10~~--10^10h8-10h8-10h8--10-12-10-8-10-8-8--
e----------------------------------------------------------------------

E--------------
A--------------
D--------------
G--------------
B--12/10--8-8--
e--------------

         G                    D
Nunca pense, que me podia enamorar
                      C
Pero ahora que no te tengo
                D               G    G7
Presiento que nunca te voy a olvidar

          C         D              Bm
Como olvidar, tu sonrisa bajo la lluvia
            Em
Caminando deprisa
         C         D                  G      G7
Por las calles solitarias, abrazados los dos
          C           D         Bm
Como olvidar, que llorabas esa noche
               Em
Que de ti me alejabas
     C         D                  G   G7
Y decias amor mio, no te voy a olvidar


2do Solo...C-D-Bm-Em-C-D-G

E--------------------------------------------------------------------
A--------------------------------------------------------------------
D----------------------------------------------------------5----5-5--
G--7-5------9--9-9-7-7------9-7-9--7/5-5--7-9-9-7-9-7-9-7-5--7/5-----
B-----8-7-7-------------7-7------------------------------------------
e--------------------------------------------------------------------

            
            
Suggest correction
Creating personal tab
Creating personal tab
You can edit any tab online and save it as your Personal.

You can edit, replace or remove any tab part or add personal notes – all changes will be seen only by you.

Personal tabs can be accessed anytime from any device, even offline.
Learn more »
Give kudos to tab author, rate the tab!
1 2 3 4 5
comments
print report bad tab
guest
Wanna post a correction for this tab? Suggest correction