Oops, an error
Loading. Please wait.

Secreto Callado tab

38 views 3 this week
no commentswrite comment
1 2 3 4 5
3 more votes to show rating
add to favorites
×
Save as Personal and add changes to this tab that will be seen only by you. Learn more ›
×
You can save this tab as Personal to edit and correct it or add notes. All changes will be seen only by you. Learn more »
launch autoscroll
font size
0
reset
how to read this tab
guitar tuner
edit
Autoscroll
slow
fast
+/-
esc
set tempo
stop
Intro:

    Am                          Dm
e|--------------------------------------------------------|
b|----------5-------5-------------------6---6p5-----------|
g|------5-----5-------5-------------7-----7-----7---------|
d|----7---7------7----------------7---7-------------------|
a|------------------------------5-------------------------|
E|--5-----------------------------------------------------|

    G                             C          E
e|-------------------------------------------------------|
b|-------------------------------------------------------|
g|----------3-----3------------------5----------9~~------|
d|------5-----5-----5--------------5----------9----------|
a|----5---5-----5----------------3------3-3/7------------|
E|--3----------------------------------------------------|


    Am                           Dm

   El la miró y le dijo no te quiero más
e|--------------------------------------------------------|
b|----------5-------5-------------------6---6p5-----------|
g|------5-----5-------5-------------7-----7-----7---------|
d|----7---7------7----------------7---7-------------------|
a|------------------------------5-------------------------|
E|--5-----------------------------------------------------|

        G                               C         E
   Ella se mordió los labios para no llorar
e|--------------------------------------------------------------|
b|--------------------------------------------------------------|
g|----------3-----3-------------------------5----------9~~------|
d|------5-----5-----5---------------------5----------9----------|
a|----5---5-----5-----------------------3------3-3/7------------|
E|--3-----------------------------------------------------------|


    Am                          Dm
    Ël la acarició y le dijo no te pongas mal
e|--------------------------------------------------------|
b|----------5-------5-------------------6---6p5-----------|
g|------5-----5-------5-------------7-----7-----7---------|
d|----7---7------7----------------7---7-------------------|
a|------------------------------5-------------------------|
E|--5-----------------------------------------------------|

    G                             C          E
    Ella se tapó la cara y empezó a llorar
e|-------------------------------------------------------|
b|-------------------------------------------------------|
g|----------3-----3------------------5----------9~~------|
d|------5-----5-----5--------------5----------9----------|
a|----5---5-----5----------------3------3-3/7------------|
E|--3----------------------------------------------------|


Am                                  Dm
Él la miró y le dijo no te quiero más
G                                   C      E
Ella se mordió los labios para no llorar
Am                                  Dm
El la acarició y le dijo no te pongas mal
G                                   C      E
Ella se tapó la cara y empezó a llorar
Am                                      Dm
Tanto que corrió a la cita para verlo a él
G                                      C      E
Tanto que esperó el momento de decírselo
Am                                 Dm
Algo dentro de su pecho se despedazó
E                                  Am           E
El secreto que guardaba ya no lo dirá

Solo I:
(los mismos acordes del verso)

e|------5======5-5----------5--------5----------------------|
b|------------(5)=========(5)-------------------------------|
g|--7b9----7b9-------7=b9------7b[9]r7----5---7b9===r7------|
d|----------------------------------------------------------|
a|----------------------------------------------------------|
E|----------------------------------------------------------|

e|----------------------------------------------------------|
b|----------------------------------------------------------|
g|--5~-5-5-4~-4-4-4-----------------------------------------|
d|-----------------7~-7-7-7-5~-5-5-5-7-5--3~~-2~~-3~~-2~~---|
a|----------------------------------------------------------|
E|----------------------------------------------------------|

e|------5======5-5----------5--------5----------------------|
b|------------(5)=========(5)-------------------------------|
g|--7b9----7b9-------7=b9------7b[9]r7----5---7b9===r7------|
d|----------------------------------------------------------|
a|----------------------------------------------------------|
E|----------------------------------------------------------|

e|-------17p15p13------------------------------------------------------|
b|----------------18p17p15-1514-----17p15p14--14------14h15=/(17)-----|
g|--/17--------------------------16----------------16------------------|
d|---------------------------------------------------------------------|
a|---------------------------------------------------------------------|
E|---------------------------------------------------------------------|


Am                                Dm
Ella sacó un pañuelo y lo quiso usar
G                                 C    E
Ella tomó su cartera y le dijo adiós
Am                                   Dm
Donde va con tanta pena donde irá señor
G                                         C   E
El no adivinó el secreto que ella se guardó
Am                                  Dm
Donde va con tanta pena donde va señor
E                                          Am    E
Donde el hijo que ella espera donde ira señor

Solo II:

     Am                                       Dm
               Dónde irá con su dolor
e|------5======5-5----------5--------5----------------------|
b|------------(5)=========(5)-------------------------------|
g|--7b9----7b9-------7=b9------7b[9]r7----5---7b9===r7------|
d|----------------------------------------------------------|
a|----------------------------------------------------------|
E|----------------------------------------------------------|

         G                                C       E
       Dime dónde irá señor       Dónde      dónde
e|----------------------------------------------------------|
b|----------------------------------------------------------|
g|--5~-5-5-4~-4-4-4-----------------------------------------|
d|-----------------7~-7-7-7-5~-5-5-5-7-5--3~~-2~~-3~~-2~~---|
a|----------------------------------------------------------|
E|----------------------------------------------------------|

     Am                                        Dm
         dónde irá
e|------5======5-5----------5--------5----------------------|
b|------------(5)=========(5)-------------------------------|
g|--7b9----7b9-------7=b9------7b[9]r7----5---7b9===r7------|
d|----------------------------------------------------------|
a|----------------------------------------------------------|
E|----------------------------------------------------------|

     E                                          Am             E
e|-------17p15p13------------------------------------------------------|
b|----------------18p17p15-1514-----17p15p14--14------14h15=/(17)-----|
g|--/17--------------------------16----------------16------------------|
d|---------------------------------------------------------------------|
a|---------------------------------------------------------------------|
E|---------------------------------------------------------------------|

    Am                                 Dm
     ,,,,,,,,,,,,,,,,,,,,,,,,,,,,,,,,,,,,,,,,,,,,,,,,,,,,,,,,,,
e|------------------------------------------------------------------|
b|--10--12--13--12----10-10-13-12-----8-10-12-10----8-10-12-10------|
g|------------------------------------------------------------------|
d|------------------------------------------------------------------|
a|------------------------------------------------------------------|
E|------------------------------------------------------------------|

    G                  C               E
    ,,,,,,,,,,,,,,,,,
e|------------------------------------------------------|
b|--6-8-10-8---6-8-10-8(5)-5~~-5h6p5---5~~-5-6-8-------|
g|------------------------------------7-----------------|
d|------------------------------------------------------|
a|------------------------------------------------------|
E|-----------------------------------------------------

    Am                                Dm
     ,,,,,,,,,,,,,,,,,,,,,,,,,,,,,,,,,,,,,,,,,,,,,,,,,,,,,,,,,,
e|------------------------------------------------------------------|
b|--10--12--13--12----10-10-13-12-----8-10-12-10----8-10-12-10------|
g|------------------------------------------------------------------|
d|------------------------------------------------------------------|
a|------------------------------------------------------------------|
E|------------------------------------------------------------------|

  G                  C           E          Am
   ,,,,,,,,,,,,,,,,,
e|------------------------------------------------------|
b|--6-8-10-8---6-8-10-8(5)-5~~-5h6p5---5~~-5-6-8-10~~~-|
g|------------------------------------7-----------------|
d|------------------------------------------------------|
a|------------------------------------------------------|
E|------------------------------------------------------|

Simbología:
h           hammer on
p           pull off
/           slide
~            let ring
()           swell
????  trill

Se los dedico a todos los que como yo se han venido
dentro y les hemos dejado un regalito a alguna inocente hija de Eva.
 Muchos dicen que es cobardía yo digo que es evolución, y si no,
lean la raza cósmica de José Vasconcelos.
Órale tropa cuídense y no usen condón, no existe el SIDA y si si,
propáguenlo, el destino de México está en sus manos, eliminemos
silenciosamente esta sobrepoblación que a nadie beneficia, hagan
abortar a su novia a puñetazos, mutilen prepucios, cojan infantes
de la calle, forniquen bestias. Viva México.
Shell-ooo@hotcake

            
            
Suggest correction
Creating personal tab
Creating personal tab
You can edit any tab online and save it as your Personal.

You can edit, replace or remove any tab part or add personal notes – all changes will be seen only by you.

Personal tabs can be accessed anytime from any device, even offline.
Learn more »
Give kudos to tab author, rate the tab!
1 2 3 4 5
comments
print report bad tab
guest
Wanna post a correction for this tab? Suggest correction