Oops, an error
Loading. Please wait.

Last Parade Tab

496 views 1 this week
no commentswrite comment
1 2 3 4 5
excellent!
x 3
add to favorites
launch autoscroll
font size
0
reset
how to read this tab
guitar tuner
Tab Pro tools
  • play this tab
  • loop segment
  • change instrument
  • show fretboard
  • metronome
×
Best way to learn
"Last Parade"
Autoscroll
slow
fast
+/-
esc
set tempo
stop
Contributor
Difficulty
Tuning
intermediate
D# G# C# F# A# D#
Call Me No One: Last Parade

Transcribed by: mysticguitar77

YouTube Username: MysticGuitar77

Date last modified: February 1, 2013

Tuning: Eb Standard (Eb,Ab,Db,Gb,Bb,Eb)

Riff 1 (very lightly palm muted, almost open)
Eb|-----------------------------------------|
Bb|-12---12---12---11---11---11---11---11---|
Gb|----9----9----9----9----9----9----9----9-|
Db|-----------------------------------------|
Ab|-----------------------------------------|
Eb|-----------------------------------------|
    *  * *  * *  * *  * *  * *  * *  * *  *

Riff 2 (clean) "Just a sign of what's to come..."
Eb|---------------------------------------------------------|
Bb|-------------0~--------0~--------0~----------------------|
Gb|-------7/9\7-----5/7\5-----7/9\7----9/11-x-12-x-11-x-12~-|
Db|-9-9-9---------------------------------------------------|
Ab|---------------------------------------------------------|
Eb|---------------------------------------------------------|
    * * *

Eb|-----------------------------------------------------|
Bb|-------0~--------0~--------0~------------------------|
Gb|-7/9\7-----5/7\5-----7/9\7----12h14p12-12-x-11-x-12~-|
Db|-----------------------------------------------------|
Ab|-----------------------------------------------------|
Eb|-----------------------------------------------------|

Eb|----------------------------------------------------|
Bb|-------0~--------0~--------0~-----------------------|
Gb|-7/9\7-----5/7\5-----7/9\7----14h16-x-17-x-14-x-16~-|
Db|----------------------------------------------------|   x2
Ab|----------------------------------------------------|
Eb|----------------------------------------------------|

Riff 3 (clean)
Eb|-----------------------------------------|
Bb|-----------------------------------------|
Gb|-14-16-16~-14-16-16~-14-16-16~-12-14-16~-|
Db|-----------------------------------------|
Ab|-----------------------------------------|
Eb|-----------------------------------------|

Eb|--------------------------------------|
Bb|--------------------------------------|
Gb|-14-16-16~-14-16-16~-14-16-16~-14-14~-|
Db|--------------------------------------|
Ab|--------------------------------------|
Eb|--------------------------------------|

Riff 4 (clean) "You're way too late for my devastation..."
Eb|------------10-------10-------------10-------12-|
Bb|---10-12-12----12-12----10-12-12-10----12-10----|
Gb|-9----------------------------------------------|
Db|------------------------------------------------|   x3
Ab|------------------------------------------------|
Eb|------------------------------------------------|
    * *  *  *     *  *     *  *  *  *     *  *

Eb|------------10-------10----------------------|
Bb|---10-12-12----12-12----10-12-x-12-x-10-x----|
Gb|-9----------------------------------------13-|
Db|---------------------------------------------|
Ab|---------------------------------------------|
Eb|---------------------------------------------|
    * *  *  *     *  *     *

Play Riff 4 x2   "You're all too late for my desperation..."

Fill 1 (clean, lightly palm muted like intro)
Eb|-------------------------------------------------------------|
Bb|-12---12---12---12---12---12---12---12---11---11---11---11---|
Gb|----9----9----9----9----9----9----9----9----9----9----9----9-|
Db|-------------------------------------------------------------|
Ab|-------------------------------------------------------------|
Eb|-------------------------------------------------------------|
    *  * *  * *  * *  * *  * *  * *  * *  * *  * *  * *  * *  *

Eb|-------------------|
Bb|-8---8---10---10---|
Gb|---9---9----9----9-|
Db|-------------------|
Ab|-------------------|
Eb|-------------------|
    * * * * *  * *  *

Riff 5 (distortion) "Curse the one who loves himself..."
Eb|---------------------------------------------------------------------|
Bb|---------------------------------------------------------------------|
Gb|---------------------------------------------------------------------|
Db|-2-2-----------------------------------------------------------------|
Ab|-2-2-----------------------------------------------------------------|
Eb|-0-0-0-5*-5*-0-5*-5*-0-5*-5*-0-5*-5*-0-5*-5*-0-5*-5*-0-5*-5*-0-5*-5*-|

Play Riff 5 x4   "Ask myself, should I believe..."
                 (the harmonic pattern gets altered slightly each time,
                  just improvise it)

Riff 6   "No more, no more, no more, no more..."
Eb|----------|
Bb|----------|
Gb|----------|
Db|----------|   x6
Ab|-2-2-2----|
Eb|-0-0-0-3*-|
    * * *

Eb|------------------------------------|
Bb|------------------------------------|
Gb|------------------------------------|
Db|------------------------------------| (just keep strumming the natural
Ab|------------------------------------|  harmonics as you slide up the neck)
Eb|-3*3*4*4*5*5*6*6*7*7*8*8*9*9*10*10*-|

Riff 7 (rhythm guitar, just the chords) "You're way too late..."
Eb|-----------------------|
Bb|-----------------------|
Gb|---------------------5-|
Db|-2----2----5----7----x-| (listen to the song for strumming pattern)
Ab|-2----2----5----7----3-|
Eb|-0----0----3----5------|

Riff 7 (lead guitar)
Eb|----------------------------------------------------------------|
Bb|----------------------------------------------------------------|
Gb|-9--9-9-9--9-9--9-9-9-9b-9\7-7-7-7--7-7-14-14-14-14-16-16-16-16-|
Db|-x--x-x-x--x-x--x-x-x-x--x-x-x-x-x--x-x-x--x--x--x--x--x--x--x--|
Ab|-7--7-7-7--7-7--7-7-7-7b-7\5-5-5-5--5-5-12-12-12-12-14-14-14-14-|
Eb|----------------------------------------------------------------|

Eb|-----------------------------------------------------------------|
Bb|-----------------------------------------------------------------|
Gb|-17--17-17-17--17\9-9-9--14--14-14-14--14-14-16--16-16-16--14\13-|
Db|-x---x--x--x---x--x-x-x--x---x--x--x---x--x--x---x--x--x---x--x--|
Ab|-15--15-15-15--15\7-7-7--12--12-12-12--12-12-14--14-14-14--12\11-|
Eb|-----------------------------------------------------------------|

Eb|----------------------------------------------------------------|
Bb|----------------------------------------------------------------|
Gb|-9--9-9-9--9-9--9-9-9-9b-7-7-7-7-7-7-7-7-17--17-17-17--17\9-9-9-|
Db|-x--x-x-x--x-x--x-x-x-x--x-x-x-x-x-x-x-x-x---x--x--x---x--x-x-x-|
Ab|-7--7-7-7--7-7--7-7-7-7b-5-5-5-5-5-5-5-5-15--15-15-15--15\7-7-7-|
Eb|----------------------------------------------------------------|

Eb|----------------------------------------------------------|
Bb|----------------------------------------------------------|
Gb|-11-11-11-14-14-14-14-14-14-14-14-17-17-17-17-16-16-16-16-|
Db|-x--x--x--x--x--x--x--x--x--x--x--x--x--x--x--x--x--x--x--|
Ab|-9--9--9--12-12-12-12-12-12-12-12-15-15-15-15-14-14-14-14-|
Eb|----------------------------------------------------------|

Fill 2 (clean, lightly palm muted like intro)
Eb|--------------------------------------------------------|
Bb|-12---12---12---11---11---11---11---11---12---12---12---|
Gb|----9----9----9----9----9----9----9----9----9----9----9-|
Db|--------------------------------------------------------|
Ab|--------------------------------------------------------|
Eb|--------------------------------------------------------|
    *  * *  * *  * *  * *  * *  * *  * *  * *  * *  * *  *

Eb|---------------------|
Bb|-8---8---8---8---8---|
Gb|---9---9---9---9---9-|
Db|---------------------|
Ab|---------------------|
Eb|---------------------|
    * * * * * * * * * *

Riff 8 (clean) "The sick, the course, the frail, the weak..."
Eb|--------------------------------------------------------|
Bb|-12---12---12---11---11---11---11---11---12---12---12---|
Gb|----9----9----9----9----9----9----9----9----9----9----9-|
Db|--------------------------------------------------------|
Ab|--------------------------------------------------------|
Eb|--------------------------------------------------------|
    *  * *  * *  * *  * *  * *  * *  * *  * *  * *  * *  *

Eb|-----------------------|
Bb|-8---8---8---10---10---|
Gb|---9---9---9----9----9-|
Db|-----------------------|
Ab|-----------------------|
Eb|-----------------------|
    * * * * * * *  * *  *

Riff 8 (some other guitar)
Eb|-----12*----------------12*--------------|
Bb|-12*-----12*-11~----12*-----12*----------|
Gb|--------------------------------12*--14~-|
Db|-----------------------------------------|
Ab|-----------------------------------------|
Eb|-----------------------------------------|

Riff 8 (3rd guitar w/ distortion)
Eb|--------------------|
Bb|--------------------|
Gb|--------------------|
Db|-2-2------------2-2-|
Ab|-2-2----------x-2-2-|
Eb|-0-0----------x-0-0-|

Riff 9   "They're all the same..."
Eb|----------------------------------------|
Bb|----------------------------------------|
Gb|----------------------------------------|
Db|-2-2---10b---6b---5b--12-12/14\12~--\\\-|
Ab|-2-2---x-----x----x---x--x--x--x----\\\-|
Eb|-0-0-x-8b--x-4b-x-3b--10-10/12\10~--\\\-|

Eb|----------------------------------7--8--0--0-|
Bb|----------------------------------12-12-10-9-|
Gb|---------------------------------------------|
Db|-2-2---10b---6b---5b--12-12/14\12------------|
Ab|-2-2---x-----x----x---x--x--x--x-------------|
Eb|-0-0-x-8b--x-4b-x-3b--10-10/12\10------------|

Eb|---------------------------------------7--8--0~-|
Bb|---------------------------------------12-12-0~-|
Gb|-------7b---10b-------------7b---10b------------|
Db|-2-2---x----x-----6b--2-2---x----x--------------|
Ab|-2-2---5b---8b----x---2-2---5b---8b-------------|
Eb|-0-0-x----x-----x-4b--0-0-x----x-----x----------|

Eb|-------------------------------------------------------|
Bb|-------------------------------------------------------|
Gb|-------7b---10b-------------5-----10-10-10-10-10-10-10-|
Db|-2-2---x----x-----6b--2-2---x-----x--x--x--x--x--x--x--|
Ab|-2-2---5b---8b----x---2-2---3-2-2-8--8--8--8--8--8--8--|
Eb|-0-0-x----x-----x-4b--0-0-0---0-0----------------------|

Play Riff 7 x2   "You're way too late for my devastation..."

Ending:
Eb|-----12*---------|
Bb|-12*-----12*-11~-|
Gb|-----------------|
Db|-----------------|
Ab|-----------------|
Eb|-----------------|

Enjoy!! This is the basic framework of the song, some over-dubbed guitar 
parts are excluded, but this is enough for 2 guitars to play the song.
comments
We did not receive enough feedback on this tab! Please rate:
print report bad tab
1 2 3 4 5
I want to post or [tab]
guest
You may want to rate the tab now too:
select rating
Please do not post tabs as comments. Select "correction" instead!