Oops, an error
Loading. Please wait.

Akoy Babalik tab

7,669 views 1 this week
6 commentsread comments
1 2 3 4 5
1 last vote to show rating
add to favorites
×
Save as Personal and add changes to this tab that will be seen only by you. Learn more ›
×
You can save this tab as Personal to edit and correct it or add notes. All changes will be seen only by you. Learn more »
launch autoscroll
font size
0
reset
how to read this tab
guitar tuner
edit
Autoscroll
slow
fast
+/-
esc
set tempo
stop
Title: Ako'y Babalik
Artist: Callalily
Album: Fisheye
Tabbed by: Mark Jesson Galera

For any comments and Suggestion:

Text Me: 09198408399
Friendster: boybassista@yahoo.com

        This is the new song of Callalily from their new album      
                              "Fisheye"..
                Kung may mali man,..pakicomment kaagad..tnx!


Tuning: Standard

Intro:

Guitar 1:
                 				
e--------------------------------------|
b---555---666----------555---666-------|
g--------------666-----------------777-|
D--------------------------------------|
A--------------------------------------|
E--------------------------------------|

 or you can use this

e-----------------------------------|
b-----------------------------------|
g—999-101010--555-/-999-101010-555--|
D-----------------------------------|
A-----------------------------------|
E-----------------------------------|

Verse: Guitar 1:

Pasensya na kung ako ay....
e------------------------------------------------|
b------------------------------------------------|
g-------5—4h5-------5—4h5--------5-4h5----5-4h5--|
D----5------------5-----------5---------5--------|
A—3-------------3----------3----------3----------|
E------------------------------------------------|

Guitar 2:
      C         G           A          F
e-------------------------------------------------|
b-------------------------------------------------|
g----5555-----------------------------------------|
D----5555------55555------77777-------33333-------|
A----3333------55555------77777-------33333-------|
E--------------33333------55555-------11111-------|
     pm    pm    pm    pm      pm           pm 

Pre-Chorus:

Guitar 2:
Balang araw....
    A    G      F        G
e-----------------------------------|
b-----------------------------------|
g-----------------------------------|
D--7777--5555--3333----5555---------|
A--7777--5555--3333----5555---------|
E--5555--3333--1111----3333---------|


Guitar 1:
(waah Effects)

e---55555----3333---1111-----3333------------|
b---55555----3333---1111-----3333------------|
g--------------------------------------------|
D--------------------------------------------|
A--------------------------------------------|
E--------------------------------------------|

Chorus:

Guitar 2:
Ako’y babalik……
      C         G         A             F
e-------------------------------------------------|
b-------------------------------------------------|
g----5555-----------------------------------------|
D----5555------55555------77777-------33333-------|
A----3333------55555------77777-------33333-------|
E--------------33333------55555-------11111-------|

Guitar 1:
e----------------------------------------------------|
b----------------------------------------------------|
g---5555/7777/9999/121212---5555-/7777/9999/121212---|   
D---xxxx/-xxx/xxxx/xxxxxx---xxxx-/xxxx/xxx/xxxxxx----|
A---3333/5555/7777/101010---3333/5555/7777101010-----|
E----------------------------------------------------|

Then 

e----------------------------------------------------------|
b----------------------------------------------------------|
g---5555/7777/9999/121212---------5555-/7777/9999/121212---|   
D---xxxx/-xxx/xxxx/xxxxxx(pause)--xxxx-/xxxx/xxx/xxxxxx----|
A---3333/5555/7777/101010---------3333/5555/7777101010-----|
E----------------------------------------------------------|

Intro:

Guitar 1:
                 				
e--------------------------------------|
b---555---666----------555---666-------|
g--------------666-----------------777-|
D--------------------------------------|
A--------------------------------------|
E--------------------------------------|

 or you can use this

e-----------------------------------|
b-----------------------------------|
g—999-101010--555-/-999-101010-555--|
D-----------------------------------|
A-----------------------------------|
E-----------------------------------|




Verse: Guitar 1:

Matagal din tayong...
e------------------------------------------------|
b------------------------------------------------|
g-------5—4h5-------5—4h5--------5-4h5----5-4h5--|
D----5------------5-----------5---------5--------|
A—3-------------3----------3----------3----------|
E------------------------------------------------|

Guitar 2:
      C         G          A            F  
e-------------------------------------------------|
b-------------------------------------------------|
g----5555-----------------------------------------|
D----5555------55555------77777-------33333-------|
A----3333------55555------77777-------33333-------|
E--------------33333------55555-------11111-------|
     pm    pm    pm    pm      pm           pm 

Pre-Chorus:

Guitar 2:

Balang araw....
    A     G     F       G     
e-----------------------------------|
b-----------------------------------|
g-----------------------------------|
D--7777--5555--3333----5555---------|
A--7777--5555--3333----5555---------|
E--5555--3333--1111----3333---------|

Guitar 1:
(waah Effects)

e---55555----3333---1111-----3333------------|
b---55555----3333---1111-----3333------------|
g--------------------------------------------|
D--------------------------------------------|
A--------------------------------------------|
E--------------------------------------------|

Chorus:

Guitar 2:
Ako’y babalik……
      C         G          A           F
e-------------------------------------------------|
b-------------------------------------------------|
g----5555-----------------------------------------|
D----5555------55555------77777-------33333-------|
A----3333------55555------77777-------33333-------|
E--------------33333------55555-------11111-------|

Guitar 1:
e----------------------------------------------------|
b----------------------------------------------------|
g---5555/7777/9999/121212---5555-/7777/9999/121212---|   
D---xxxx/-xxx/xxxx/xxxxxx---xxxx-/xxxx/xxx/xxxxxx----|
A---3333/5555/7777/101010---3333/5555/7777101010-----|
E----------------------------------------------------|

Then 

Drum roll

Adlib:

Chorus:

Guitar 2:
Ako’y babalik……
      C         G          A           F
e-------------------------------------------------|
b-------------------------------------------------|
g----5555-----------------------------------------|
D----5555------55555------77777-------33333-------|
A----3333------55555------77777-------33333-------|
E--------------33333------55555-------11111-------|

Guitar 1:
e----------------------------------------------------|
b----------------------------------------------------|
g---5555/7777/9999/121212---5555-/7777/9999/121212---|   
D---xxxx/-xxx/xxxx/xxxxxx---xxxx-/xxxx/xxx/xxxxxx----|
A---3333/5555/7777/101010---3333/5555/7777101010-----|
E----------------------------------------------------|

Intro:

Guitar 1:
                 				
e--------------------------------------|
b---555---666----------555---666-------|
g--------------666-----------------777-|
D--------------------------------------|
A--------------------------------------|
E--------------------------------------|

 or you can use this

e-----------------------------------|
b-----------------------------------|
g—999-101010--555-/-999-101010-555--|
D-----------------------------------|
A-----------------------------------|
E-----------------------------------|

Lyrics:

Pasensya na kung ako ay
Nawawalan ng gana
Hindi ko, hindi ko sinasadya
Patawad, sana’y naiintindihan

Balang araw, magugulat ka
Magugulat ka

Ako’y babalik, aking mahal,
Sana’y di mainip
Ako’y babalik, aking mahal,
Sana’y di mainip

Matagal din tayong
Nagsama at nakilala na kita
Hindi ko inakala na magsasawa;
Wala na ang hiwaga

Balang araw magugulat ka,
Magugulat ka

Akoy’ babalik, aking mahal
Sana’y di mainip
Ako’y babalik, aking mahal
Sana’y di mainip

Sana, sa aking pagdating,
Yakapin mo ako nang mahigpit

            
            
Suggest correction
Creating personal tab
Creating personal tab
You can edit any tab online and save it as your Personal.

You can edit, replace or remove any tab part or add personal notes – all changes will be seen only by you.

Personal tabs can be accessed anytime from any device, even offline.
Learn more »
Give kudos to tab author, rate the tab!
1 2 3 4 5
comments
print report bad tab
6 comments total. Showing first comments.
0 reply
purificator03 72 Apr 03, 2008 08:27 PM

tol aus to gnda ah!! hehehe
kip rockin!~

+1 reply
phoenix9500 10 Jun 27, 2008 08:07 AM

mali intro mo..

e------------------------------------------------------
b----------------555--666--------------555--66---------
g--------------------------555------------------555----
D------------------------------------------------------
A------------------------------------------------------
E------------------------------------------------------


tsaka dun sa verse mo mali din...


e--------------------------------
b--------------------------------
g---------------5-4h5------------
D---------5----------------------
A-----33-----3-------------------
E--------------------------------


yan lang... sa iba parang tama naman...


sana nakatulong ako...

+1 reply
phoenix9500 10 Jun 27, 2008 08:08 AM

mali intro mo..

e------------------------------------------------------
b----------------555--666--------------555--66---------
g--------------------------555------------------555----
D------------------------------------------------------
A------------------------------------------------------
E------------------------------------------------------


tsaka dun sa verse mo mali din...


e--------------------------------
b--------------------------------
g---------------5-4h5------------
D---------5----------------------
A-----33-----3-------------------
E--------------------------------


yan lang... sa iba parang tama naman...


sana nakatulong ako...

guest
You may want to rate the tab now too:
select rating
Wanna post a correction for this tab? Suggest correction