Oops, an error
Loading. Please wait.

Dreams tab

1,904 views 1 this week
5 commentsread comments
1 2 3 4 5
x 5
add to favorites
×
Save as Personal and add changes to this tab that will be seen only by you. Learn more ›
×
You can save this tab as Personal to edit and correct it or add notes. All changes will be seen only by you. Learn more »
launch autoscroll
font size
0
reset
how to read this tab
guitar tuner
edit
Autoscroll
slow
fast
+/-
esc
set tempo
stop
Song:Dream
Album:XYZ
Artist:Callalily
Date Tabbed:April,2007
Guitar Tabber:Ryan Manongdo/17/m/Montalban Rizal
              no_falter0x@yahoo.com(Friendster&YM)

For your comments,questions or suggestions,just Post a Comment or PM me.

Gtr.Legends:
h - hammer-on
p - pull-off
^ - pedal-on(clean-wahwah)
/ - slide
x - dead string and scratching
~ - let it ring

Gtr.Tuning:Standard(Normal)

Intro:
Gtr.1
e|-3333--3333--3333--3333---|
B|-3333--3333--3333--3333---|      (Strum only  the eBG string)
G|-0000--2222--2222--0000---| 2x
D|-0000--2222--xxxx--2222---|
A|-2222--0000--2222--3333---|
E|-3333---------------------|

Gtr.2
e|---------------|
B|---------------|
G|-----4h5-4-----| 8x
D|-5h7-------5---|
A|---------------|
E|---------------|

Verse 1:As I walked...
Gtr.1
e|-----------------------|
B|-----------------------|
G|-----------------------| 4x
D|-55---77---99---1010---|
A|-55---77---99---1010---|
E|-33---55---77----8-8---|

Gtr.2
e|-33xx33x3333xx33x33--88-77-3---|
B|-33xx33x3333xx33x33--------3---|
G|-------------------------------| 4x
D|-------------------------------|
A|-------------------------------|
E|-------------------------------|
   ^^^^^^^^^^^^^^^^^^        ^

Chorus 1:Dream,it makes...
Gtr.1
e|-2~-----      -2~--------------|
B|-3~-----      -3~--------------|
G|-4~--5~- 3x   -4~--5555-7777---|
D|-4~--5~- Then -4~--5555-7777---|
A|-2~--3~-      -2~--3333-5555---|
E|--------      -----------------|

Gtr.2
e|------------------|
B|-3~--3p2/5~--3~---|
G|------------------| 4x
D|------------------|
A|------------------|
E|------------------|

Repeat Intro:

Repeat Verse 1:

Repeat Chorus 1:

Verse 3:
Play Verse 1

Chorus 2:Come to me and...
Play Chorus 1

It's time to come...
e|-3~--0~--2~--0~---|
B|-3~--1~--3~--1~---|
G|-0~--2~--4~--0~---| 4x
D|-0~--2~--4~--2~---|
A|-2~--0~--2~--3~---|
E|-3~---------------|

Outro:Repeat Intro

End...

Dream Lyrics:

Verse 1
As i walked along the sky
Of my dream you came alive
And it feels you're made to change
My whole life
And i know you will be there
There for me to make me stare
And it will be always and
Forever in my dreams

Chorus 1:
Dream, it makes me change but not for real
cause i only see you smiling
In my dreams, that's the only time
I make you feel
What i have for you is real

Repeat Verse 1:

Chorus 2:
Come to me and hold me in my dreams
Let me touch you for a while
And dont let me realize that i am dreaming
'cause i'll be missing you,
I'll be missing you...

Verse 2:
As i ran along the sky
Full of dreams, hopes and lies
You just come to make me feel
That we're supposed to be together  2x
And i know you will be there
There for me to make me stare
And it will be always and
Forever in my dreams

Outro:
It's time to come around
It's time to wake up now
It's time to come around...

It's time to come around
It's time to wake up now
It's time to come around...

            
            
Suggest correction
Creating personal tab
Creating personal tab
You can edit any tab online and save it as your Personal.

You can edit, replace or remove any tab part or add personal notes – all changes will be seen only by you.

Personal tabs can be accessed anytime from any device, even offline.
Learn more »
comments
print report bad tab
5 comments total. Showing first comments.
0 reply
elvin_guitar 397 Apr 09, 2007 01:26 AM

dude!!! eto ung bass sa pinakaintro...
G|---------------|
D|---------------|
A|------2h3-2----|
E|--3h5-------3--|

0 reply
No_Falter08 2,414 Apr 09, 2007 04:08 AM

Tama din yang syo Elvin pero ito tlga ung sa Bass:-)
G|--------------------|
D|-------9h10-9-------|
A|-10h12--------10~---|
E|--------------------|

Try mo sa bass gtr. kc yan ang gnagamit qng chord pg-nagba2ss aq:-)

0 reply
paul21 618 Apr 10, 2007 12:11 AM

sa gitara lang kasi yun noh... iba ang tunog nun kung nasa mababang octave... kapag cnubukan mo sa bass yun, iba talaga ang tunog

guest
You may want to rate the tab now too:
select rating
Wanna post a correction for this tab? Suggest correction