Oops, an error
Loading. Please wait.

Final Song tab

version 2
version 2

Whole song

1,209 views 1 this week
10 commentsread comments
1 2 3 4 5
x 8
add to favorites
×
Save as Personal and add changes to this tab that will be seen only by you. Learn more ›
×
You can save this tab as Personal to edit and correct it or add notes. All changes will be seen only by you. Learn more »
launch autoscroll
font size
0
reset
how to read this tab
guitar tuner
edit
Autoscroll
slow
fast
+/-
esc
set tempo
stop
Author
Title:  Final Song
Artist: Callalily
Album:  Destination XYZ
Tabbed by:Paul Anthonie Antoc
E-mail:paul_antoc@yahoo.com
Contact # : 09184423602

Elow po sa mga friends ko sila Calvin,Jon,Otep,Emak,Aerol,Tuts.. at iba 
pa.. sa mga clasm8s ko sa MNHS(annex) IV-A.. mabuhay kayong lahat.. hehe
Binabati ko rin si Maria Lourdes Vejar, HEHE.. wala lang.. HEHEHE!!

Note: Astig kamo yung hidden track nito... "Dream" yata yung  title na siningit na track
Katunog sya ng "Kaleidoscope World" hehehe.



Gtr Legend:
. - Palm muting
~ - Let ring

Standard Tuning


Intro Part 1:
Guitar 1
e|-----------------------------------------|
B|-----------------------------------------|
G|---77-------44---------------------------| 2x
D|---77--77---44---55----------------------|
A|---55--77---22---55----------------------|
E|-------55--------33----------------------|
     ..  ..   ..   ..

Guitar 2
e|----------------------------------------|
B|----------------------------------------|
G|-----7777----7777----7777----7777-------|
D|-----7777----7777----7777----7777-------| 2x
A|---55------55-------55-------55---------|
E|----------------------------------------|
    ......  ......  ......   .....


Intro Part 2:
Guitar 1
e|-----------------------------------------|
B|-----------------------------------------|
G|---7777----------4444--------------------| 2x
D|---7777---7777---4444---5555-------------|
A|---5555---7777---2222---5555-------------|
E|----------5555----------3333-------------|

Guitar 2
e|-------------------------------|
B|--777--------------------------| 
G|------7777-9999-6666-7777~-----|  Repeat this many times
D|-------------------------------|
A|-------------------------------|
E|-------------------------------|


Verse:

Guitar 1
e|---------------------------------------|
B|---------------------------------------|
G|---7777777------------5555555----------|  2x
D|---7777777--77777777--5555555--555555--|
A|---5555555--77777777--3333333--555555--|
E|------------55555555-----------333333--|
     .......  ........  .......   ......

Guitar 2
e|-------------------------|
B|------------7----7-------|
G|-----------7--7-7--------|  repeat this many times
D|----------7----7---------|
A|-----5555----------------|
E|-------------------------|
       ....


Pre-Chorus:   "No more hot tears and pride.."

Both gtr:
e|----------------------|
B|----------------------|
G|----------------------|
D|--444444--555555------| 2x
A|--444444--555555------|
E|--222222--333333------|

Chorus: "Im moving on.."

Guitar 1
e|--------------------------------|
B|--------------------------------|
G|---7777----------4444-----------| 2x
D|---7777---7777---4444---5555----|
A|---5555---7777---2222---5555----|
E|----------5555----------3333----|


Guitar 2
e|-------------------------------|
B|--777--------------------------|  Do this many times..
G|------7777-9999-6666-7777~-----|
D|-------------------------------|
A|-------------------------------|
E|-------------------------------|


Pre-Verse: "Maybe ur were right.."
Both Guitars:
e|----------------------|
B|----------------------|
G|----------------------|
D|----9~---7~----5~-----| 2x
A|----9~---7~----5~-----|
E|----7~---5~----3~-----|

Repeat Intro part2
Repeat Verse
Repeat Pre-chorus
Repeat Chorus
Repeat Pre-Verse (many strumming w/ palm mute)
Repeat Intro part2
Repeat Pre-Verse (w/ heavy palmm mute)
Repeat Chorus

Last Chords:
e|-------|
B|-------|
G|-------|
D|---5~--|
A|---5~--|
E|---3~--|


Final Song Lyrics:
by Alden Acosta

Verse:
Tired of looking at your photographs
Smiling at your latest craze
You can change the things you say and do
But nothing can change the fact
That you are sadly deranged
And i want nothing to do with you


Pre-Chorus:
No more hot tears and pride
No more bloodshed this time


Chorus:
I'm moving on to a better place
Nightmares don't arrive when i see your face
Cannot hold on to a bitter past
Candles like us were never meant to last
Maybe you were right and i was wrong
But nonetheless this is my final song
(About you/Let's go!)

Verse:
Tired of thinking about memories
Laughing at your plastic head
Even after all that we've been through
Nothing can change the fact
That i walked the path
And i was happy to see it through

Pre-Verse:
Maybe you were right and i was wrong
But nonetheless this is my final song
Maybe you were right and i was wrong
But nonetheless this is my final song

For comments,, please post it immediately.. feel free to post a comment... or txt for ur comments..
Suggest correction
Creating personal tab
Creating personal tab
You can edit any tab online and save it as your Personal.

You can edit, replace or remove any tab part or add personal notes – all changes will be seen only by you.

Personal tabs can be accessed anytime from any device, even offline.
Learn more »
comments
print report bad tab
10 comments total. Showing first comments.
0 reply
elvin_guitar 397 Mar 31, 2007 10:02 PM

dude!!! 5 stars... update mo n agad ung mga kulang mo!!!!!!!!!

0 reply
elvin_guitar 397 Mar 31, 2007 10:17 PM

dude pakuha nga ung isnag lead sa pinakaintro.. may lead pa kc dun bago ito:
e|-------10---------------------|
B|---7-8----8-7---/12-10-8~-----|
G|--------------7---------------| 2x
D|------------------------------|
A|------------------------------|
E|------------------------------|

thanks...

0 reply
annex2156 10 Apr 01, 2007 07:02 PM

aztig po ung tab mo ah..

guest
You may want to rate the tab now too:
select rating
Wanna post a correction for this tab? Suggest correction