Oops, an error
Loading. Please wait.

Magbalik Tab

version 2
version 2

Solo

  • More easy to read than other and easy to play and ... Show more
151 views 15 this week
no commentswrite comment
1 2 3 4 5
3 more votes to show rating
add to favorites
launch autoscroll
font size
0
reset
how to read this tab
guitar tuner
Autoscroll
slow
fast
+/-
esc
set tempo
stop
Help us to improve Ultimate-Guitar.com Take our survey!
×
Author
Difficulty
intermediate
About this tab version
More easy to read than other and easy to play and much better tabs for intro and adlib. Was this info helpful? Yes No
Magbalik by Callalily SOLO TAB by: Romelhood "Gol" Bulanadi 

[Intro]
(Part I.)
e|------7--------------------|
B|----------7---------7h9p7~-|
G|--9-----------9------------|
D|---------------------------| (2x)
A|---------------------------|
E|---------------------------|

(Part II)
e|------7-----------------------------------------------|
B|---------7--------7--9--9/10--9-----9/10--9-----------|
G|--9-----------9------------------9------------9-------|
D|------------------------------------------------------|
A|------------------------------------------------------|
E|------------------------------------------------------|

(Part I.)
e|------7--------------------|
B|----------7---------7h9p7~-|
G|--9-----------9------------|
D|---------------------------| (2x)
A|---------------------------|
E|---------------------------|

(Part IV)
e|------7-----------------------------------------------|
B|---------7--------7--9--9/10--9-----9/12--------------|
G|--9-----------9---------------------------------------|
D|------------------------------------------------------|
A|------------------------------------------------------|
E|------------------------------------------------------|

[Post-Chorus]

(Part I.)
e|------7--------------------|
B|----------7---------7h9p7~-|
G|--9-----------9------------|
D|---------------------------| (2x)
A|---------------------------|
E|---------------------------|

(Part IV)
e|------7-----------------------------------------------|
B|---------7--------7--9--9/10--9-----9/12--------------|
G|--9-----------9---------------------------------------|
D|------------------------------------------------------|
A|------------------------------------------------------|
E|------------------------------------------------------|

[Adlib]

e|--------------------------|----------------------------------------|
B|--------------------------|---7--9---12-12-12---10-10-10---9-9-7~--|
G|-----------------6--7/9~--|----------------------------------------|
D|--------6--7/9------------|----------------------------------------|
A|--7--9--------------------|----------------------------------------|
E|--------------------------|----------------------------------------|

e|--9/12--12-12-12-12-12-12-12---14-16-14--12-11-------12-11----12-11----12-11----12-11---12/17----|
B|----------------------------------------------------------12--------12------12-------------------|
G|-------------------------------------------------------------------------------------------------|
D|-------------------------------------------------------------------------------------------------|
A|-------------------------------------------------------------------------------------------------|
E|-------------------------------------------------------------------------------------------------|

(Continuation lang dito)

e|17-16---17-16---17-16---17-16----12-12-12-11-----------------------------------------------------------|
B|-----17------17------17------17-------------12-----------------------10-10-10--------------------------|
G|----------------------------------------------11\9--11b--9-9-9--9h11----------9-9-9--------------------|
D|------------------------------------------------------------------------------------9-9-9--------------|
A|-----------------------------------------------------------------------------------------6h7~-7/9---7~~|
E|-------------------------------------------------------------------------------------------------------|

[Outro Chorus Acoustic Part]

[Intro]
(Part I.)
e|------7--------------------|
B|----------7---------7h9p7~-|
G|--9-----------9------------|
D|---------------------------| (2x)
A|---------------------------|
E|---------------------------|

(Part II)
e|------7-----------------------------------------------|
B|---------7--------7--9--9/10--9-----9/10--9-----------|
G|--9-----------9------------------9------------9-------|
D|------------------------------------------------------|
A|------------------------------------------------------|
E|------------------------------------------------------|

(Part I.)
e|------7--------------------|
B|----------7---------7h9p7~-|
G|--9-----------9------------|
D|---------------------------| (2x)
A|---------------------------|
E|---------------------------|

(Part IV)
e|------7-----------------------------------------------|
B|---------7--------7--9--9/10--9-----9/12--------------|
G|--9-----------9---------------------------------------|
D|------------------------------------------------------|
A|------------------------------------------------------|
E|------------------------------------------------------|

 
************************************

| h  Hammer-on
| p  Pull-off
| ~  Vibrato
| /  Slide up
| b  Bend
| \  Slide down 

************************************
Suggest correction
Give kudos to tab author, rate the tab!
1 2 3 4 5
comments
print report bad tab
guest
You may want to rate the tab now too:
select rating
Wanna post a correction for this tab? Suggest correction