Oops, an error
Loading. Please wait.

Magbalik Tab

version 1
196,109 views 45 this week
6 commentsread comments
1 2 3 4 5
x 9
add to favorites
launch autoscroll
font size
0
reset
how to read this tab
guitar tuner
Autoscroll
slow
fast
+/-
esc
set tempo
stop
Help us to improve Ultimate-Guitar.com Take our survey!
×
Author
Difficulty
intermediate
Magbalik
by:Callalily
Tabbed By: Jerry Austria Jr.
"ganda 2ng song sana magus2han nyo... wala pa pong adlib... still in progress.. hehe dis 
my 1st tab so i hope u like it... plzz rate.."
ENJOY!! *stig \m/

[Intro]
guitar 1:
strumming...

|--0---| |--0---| |--0---| |--0---|
|--0---| |--0---| |--0---| |--0---|
|--2---| |--4---| |--6---| |--4---|
|--2---| |--4---| |--6---| |--4---|
|--0---| |--2---| |--4---| |--2---|
|--0---| |--0---| |--0---| |--0---|


guitar2:(Lead)

|----9---------------|
|--7--9-7-9s11--9----|2x
|--------------------|
|--------------------|
|--------------------|
|--------------------|

tapoz e2...
|----9---------------------------------|
|--7--9-7-9--11--12--11--7--12--11--7--|
|--------------------------------------|
|--------------------------------------|
|--------------------------------------|
|--------------------------------------|

tpoz un una ulet...
tpoz e2..

|----9-----------------------------|
|--7--9-7-9--11--12--11--12s14-----|
|----------------------------------|
|----------------------------------|
|----------------------------------|
|----------------------------------|
Suggest correction
comments
print report bad tab
6 comments total. Showing first comments.
0 reply
chymee 10 Mar 19, 2007 11:53 PM

di tama

0 reply
kenjisebastian 76 Apr 26, 2007 03:16 AM

hindi tama. pakinggan mong mabuti yung kanta it's in G major scale

0 reply
kenjisebastian 76 Apr 26, 2007 03:17 AM

zzz

guest
You may want to rate the tab now too:
select rating
Wanna post a correction for this tab? Suggest correction