Oops, an error
Loading. Please wait.

Magbalik tab

version 2
67,152 views 360 this week
12 commentsread comments
1 2 3 4 5
x 14
add to favorites
×
Save as Personal and add changes to this tab that will be seen only by you. Learn more ›
×
You can save this tab as Personal to edit and correct it or add notes. All changes will be seen only by you. Learn more »
launch autoscroll
font size
0
reset
how to read this tab
guitar tuner
edit
Autoscroll
slow
fast
+/-
esc
set tempo
stop
Author
Difficulty
intermediate
Artist:Callalily
Song:Magbalik
Tabbed by:AINJ BULANADI ~29~
97% sure lng ako sa solo pero halos parehas 
na parehas sya dun sa tunog..

[Intro]

Bass

G:----------------------------|2x
D:-------4-4/6---------7-7/9--|
A:-----2-------------7--------|
E:--0-------------5-----------|


[Intro]

 Guitar 1                                                                           
e|-----7-----------------------7--------------------------------|
B|--5----7--5--7/9--7--(2x)-5----7--5--7/9/10-9--5--9/10-9-7--5-|
G|--------------------------------------------------------------|
D|--------------------------------------------------------------|
A|--------------------------------------------------------------|
E|--------------------------------------------------------------|

e|-----7-----------------------7--------------------------------|
B|--5----7--5--7/9--7--(2x)-5----7--5--7/9/10-9-10/12-----------|
G|--------------------------------------------------------------|
D|--------------------------------------------------------------|
A|--------------------------------------------------------------|
E|--------------------------------------------------------------|

 Guitar 2
e|--------------------------|
B|--------------------------|
G|--1----4----6----7--------| 
D|--2----4----6----7--------|
A|--2----2----4----5--------|
E|--------------------------|


[Verse]

 Bass
e|---------------------------|
B|---------------------------|
G|---------------------------|
D|---------------------------|
A|-----2-----2-4----4-0------|
E|--0------------------------|

 Guitar 2
e|--------------------------|
B|--------------------------|
G|--1----4----6----4--------| 
D|--2----4----6----4--------|
A|--2----2----4----2--------|
E|--------------------------|


[Refrain]

Bass
G:-----------------------------------------------|
D:-----------------------------------------------|
A:-----------------------------------------------|
E:--2-2--2--4-4--4--2-2--2--4-4--4s9-7-0-0-4-----|

G:-----------------------------------------|
D:-----------------------------------------|
A:-----------------------------------------|
E:--2-2--2--4-4--4--5-5--5--7-7--7-7-------|

 Guitar 2
e|--------------------------|
B|--------------------------|
G|--6-------6-------6-------| 
D|--6---4---6---4---6---4---|
A|--4---4---4---4---4---4---|
E|------2-------2-------2---|

e|---------------------------|
B|---------------------------|
G|---------------------------|
D|---6---7-----9-------------|
A|---6---7-----9-------------|
E|---4---5-----7-------------|


[Chorus]

Bass

G:---------------------------|
D:---------------------------|
A:-------2222---4444---0000--|
E:--0000---------------------|

 Guitar 1and2
e|--------------------------|
B|--------------------------|
G|--1----4----6----4--------| 
D|--2----4----6----4--------|
A|--2----2----4----2--------|
E|--------------------------|

Repeat
[Intro] 1x
[Verse]
[Refrain]
[Chorus]


[Solo]

 Guitar 2
e|--------------------------|
B|--------------------------|
G|--1----4----6----7--------| 
D|--2----4----6----7--------|
A|--2----2----4----5--------|
E|--------------------------|

e|--------------------------|
B|--------------------------|
G|--1----4----6----4--------| 
D|--2----4----6----4--------|
A|--2----2----4----2--------|
E|--------------------------|

 Guitar 1
e|----------------------------------------------------16-14-------|
B|--------------------12x2-10x2-9x2--9s12s17-17-17-19-------17-16-|
G|-----------9--9h11----------------------------------------------|
D|-------7h8------------------------------------------------------|
A|-7h9h11---------------------------------------------------------|
E|----------------------------------------------------------------|

e|---------------------------------17-16---17-16---17-16---17-16---|
B|-17-16---17-16---17-16---17-16--------17------17------17------17-|
G|------17------17------17------17---------------------------------|
D|-----------------------------------------------------------------|
A|-----------------------------------------------------------------|
E|-----------------------------------------------------------------|

e|----------------------------------------------|
B|--17-17-16-16-12-12---------------------------|
G|--------------------9-11-11s13----9-----------|
D|-------------------------------12-------------|
A|----------------------------------------------|
E|----------------------------------------------|

e|-------------------------------------------|
B|-------------------------------------------|
G|-9h11-13-13-11-11-9-9----------------------|
D|---------------------9-9-7-7-6-6-4-4-4h5-5-|
A|-------------------------------------------|
E|-------------------------------------------|

Repeat-Chorus
       Introx2

~END~
Paki RATE nlng..ü
Thanks ulit sa mga Banda sa OB especially: 
BLUE Plate BAnd:
AKI CAPUCHINO
EDDIE EMBESTRO
RUSSEL SANDIKO
REIJI YOSHIZAWA
AINJ A. BULANADI

Support nyo lng OPM Music!!ü



************************************

| x  Dead note
| h  Hammer-on
| /  Slide up
| s  Slide

************************************

            
            
Suggest correction
Creating personal tab
Creating personal tab
You can edit any tab online and save it as your Personal.

You can edit, replace or remove any tab part or add personal notes – all changes will be seen only by you.

Personal tabs can be accessed anytime from any device, even offline.
Learn more »
comments
print report bad tab
12 comments total. Showing first comments.
-1 reply
aki24 80 Oct 07, 2006 08:55 AM

ang galing ah...idol!

-1 reply
edd_focus 41 Oct 08, 2006 03:51 AM

haha bading ka gago! ..i._ C AKI bading!! nyahehehe

0 reply
kytewafu 10 Nov 08, 2006 06:15 PM

hindi ba e b c#m tapos A ung chord progression instead na b ulit?

guest
You may want to rate the tab now too:
select rating
Wanna post a correction for this tab? Suggest correction