Oops, an error
Loading. Please wait.

Magbalik tab

version 5
179,902 views 105 this week
235 commentsread comments
1 2 3 4 5
x 59
add to favorites
×
Save as Personal and add changes to this tab that will be seen only by you. Learn more ›
×
You can save this tab as Personal to edit and correct it or add notes. All changes will be seen only by you. Learn more »
launch autoscroll
font size
0
reset
how to read this tab
guitar tuner
edit
Autoscroll
slow
fast
+/-
esc
set tempo
stop
Author
Song: Magbalik
Artist: Callalily
Ear Tabber: Elvin Hayes Gentiles
School: Parañaque National High School (DOST)

[Intro part 1](Bass)

G|-------------|-------------|
D|-----4-4/6~--|----2--------|
A|---2---------|--0---2/4----| 2x
E|--0----------|-------------|


[Intro part 2]

Guitar 1:
e|---------------------------------------------------------------------------------------|
B|---------------------------------------------------------------------------------------|
G|--9-9-9-9-9-9-9-9--4-4-4-4-4-4-4-4--6-6-6-6-6-6-6-6------------------------------------|
D|--9-9-9-9-9-9-9-9--4-4-4-4-4-4-4-4--6-6-6-6-6-6-6-6--7-7-7-7-7-7-7-7-------------------| 2x
A|--7-7-7-7-7-7-7-7--2-2-2-2-2-2-2-2-------------------4-4-4-4-4-4-4-4--7-7-7-7-7-7-7-7--|
E|----------------------------------------------------------------------5-5-5-5-5-5-5-5--|
Guitar 2:
e|----7-----------|----7-----------|----7---------------------------------|
B|-5-5-7-5-7/9-7--|-5-5-7-5-7/9-7--|-5-5-7-5-7/9-7-9/10-9-9/10-9-7\5------|
G|----------------|----------------|--------------------------------------|
D|----------------|----------------|--------------------------------------|
A|----------------|----------------|--------------------------------------|
E|----------------|----------------|--------------------------------------|
(continued)
e|----7-----------|----7-----------|----7---------------------------------|
B|-5-5-7-5-7/9-7--|-5-5-7-5-7/9-7--|-5-5-7-5-7/9-7-9/10-9-9/12~~----------|
G|----------------|----------------|--------------------------------------|
D|----------------|----------------|--------------------------------------|
A|----------------|----------------|--------------------------------------|
E|----------------|----------------|--------------------------------------|


[Verse](Acoustic)

e|--00000000--00000000--00000000--00000000--|
B|--00000000--00000000--00000000--22222222--|
G|--11111111--44444444--66666666--22222222--|
D|--22222222--44444444--66666666--22222222--| 4x
A|--22222222--22222222--44444444------------|
E|------------------------------------------|


[Refrain]

e|----------------------|----------------------|
B|----------------------|----------------------|
G|------------44444444--|------------44444444--|
D|--44444444--44444444--|--44444444--44444444--|
A|--44444444--22222222--|--44444444--22222222--|
E|--22222222------------|--22222222------------|
(continued)                                      Guitar 2:(Fill in)
e|----------------------|----------------------| |-------------|
B|----------------------|----------------------| |-------------|
G|------------44444444--|----------------------| |-------------|
D|--44444444--44444444--|--77777777--99999999--| |-------------|
A|--44444444--22222222--|--77777777--99999999--| |-----7h9-7~--|
E|--22222222------------|--55555555--77777777--| |--7h9--------|


[Chorus]

(Acoustic)
e|--00000000--00000000--00000000--00000000--|
B|--00000000--00000000--00000000--22222222--|
G|--11111111--44444444--66666666--22222222--|
D|--22222222--44444444--66666666--22222222--|
A|--22222222--22222222--44444444------------|
E|------------------------------------------|
(continued)
e|------------------------------------------|
B|------------------------------------------|
G|--99999999--44444444--66666666------------|
D|--99999999--44444444--66666666--77777777--|
A|--77777777--22222222--44444444--77777777--|
E|--------------------------------55555555--|


[Interlude]

Guitar 1:
e|------------------------------------------|
B|------------------------------------------|
G|--99999999--44444444--66666666------------|
D|--99999999--44444444--66666666--77777777--|
A|--77777777--22222222--44444444--77777777--|
E|--------------------------------55555555--|
Guitar 2:
e|----7-----------|----7-----------|----7---------------------------------|
B|-5-5-7-5-7/9-7--|-5-5-7-5-7/9-7--|-5-5-7-5-7/9-7-9/10-9-9/10-9-7\5------|
G|----------------|----------------|--------------------------------------|
D|----------------|----------------|--------------------------------------|
A|----------------|----------------|--------------------------------------|
E|----------------|----------------|--------------------------------------|


[Verse]

e|--00000000--00000000--00000000--00000000--|
B|--00000000--00000000--00000000--22222222--|
G|--11111111--44444444--66666666--22222222--|
D|--22222222--44444444--66666666--22222222--| 4x
A|--22222222--22222222--44444444------------|
E|------------------------------------------|


[Refrain]

e|----------------------|----------------------|
B|----------------------|----------------------|
G|------------44444444--|------------44444444--|
D|--44444444--44444444--|--44444444--44444444--|
A|--44444444--22222222--|--44444444--22222222--|
E|--22222222------------|--22222222------------|
(continued)
e|----------------------|----------------------|
B|----------------------|----------------------|
G|------------44444444--|----------------------|
D|--44444444--44444444--|--77777777--99999999--|
A|--44444444--22222222--|--77777777--99999999--|
E|--22222222------------|--55555555--77777777--|


[Chorus]

e|---------------------------------------|
B|--------------P------------------------|
G|--99999999--4-A----66666666------------|
D|--99999999--4-U----66666666--77777777--| 2x
A|--77777777--2-S----44444444--77777777--|
E|--------------E--------------55555555--|


[Adlib:]

Guitar 1
e|------------------------------------------------------------------|
B|------------------------------------------------------------------|
G|--99999999--44444444------------9--9-11--11-13--13-14--13--11--9--|
D|--99999999--44444444--77777777--9--9-11--11-13--13-14--13--11--9--|
A|--77777777--22222222--77777777--7--7-9---9--11--11-12--11--9---7--|
E|----------------------55555555------------------------------------|
(continued)
e|----------------------------------------|
B|----------------------------------------|
G|--66666666--44444444--------------------|
D|--66666666--44444444--7777777777777777--|
A|--44444444--22222222--7777777777777777--|
E|----------------------5555555555555555--|
Guitar 2:
e|-------------------------------------------------7/12-121212121212--|
B|-------------------12121212-10101010-9999-777777--------------------|
G|--------6h8h9~-1111-------------------------------------------------|
D|---6h7h9------------------------------------------------------------|
A|--7-----------------------------------------------------------------|
E|--------------------------------------------------------------------|
(continued)
e|--12-1214-1416-1614-1412-12-12p11----------------------------|
B|-------------------------------------------------------------|
G|-------------------------------------------------------------|
D|-------------------------------------------------------------|
A|-------------------------------------------------------------|
E|-------------------------------------------------------------|
(continued)
e|----12-11---12-11---12-11---12-11----17-16---17-16---17-16----17-16--|
B|--12------12------12------12---------------17------17------17--------|
G|---------------------------------------------------------------------|
D|---------------------------------------------------------------------|
A|---------------------------------------------------------------------|
E|---------------------------------------------------------------------|
(continued)
e|--1212-1111----------------------------------------------------------|
B|-----------12----------------------10101010--------------------------|
G|-------------9h11-12b---9----9-9h11---------9999---------------------|
D|--------------------------11---------------------9999-7777-6h7-6-9~--|
A|-----------------------------------------------------------------7~--|
E|---------------------------------------------------------------------|


[Chorus]

(Acoustic)
e|--00000000--00000000--00000000--00000000--|
B|--00000000--00000000--00000000--22222222--|
G|--11111111--44444444--66666666--22222222--|
D|--22222222--44444444--66666666--22222222--|
A|--22222222--22222222--44444444------------|
E|------------------------------------------|
(continued)
e|------------------------------------------|
B|------------------------------------------|
G|--99999999--44444444--66666666------------|
D|--99999999--44444444--66666666--77777777--|
A|--77777777--22222222--44444444--77777777--|
E|--------------------------------55555555--|


[Outro]

Guitar 1:
e|------------------------------------------|
B|------------------------------------------|
G|--99999999--44444444--66666666------------|
D|--99999999--44444444--66666666--77777777--| 2x
A|--77777777--22222222--44444444--77777777--|
E|--------------------------------55555555--|
Guitar 2:
e|----7-----------|----7-----------|----7---------------------------------|
B|-5-5-7-5-7/9-7--|-5-5-7-5-7/9-7--|-5-5-7-5-7/9-7-9/10-9-9/10-9-7\5------|
G|----------------|----------------|--------------------------------------|
D|----------------|----------------|--------------------------------------|
A|----------------|----------------|--------------------------------------|
E|----------------|----------------|--------------------------------------|
(continued)
e|----7-----------|----7-----------|----7---------------------------------|
B|-5-5-7-5-7/9-7--|-5-5-7-5-7/9-7--|-5-5-7-5-7/9-7-9/10-9-9/12~~----------|
G|----------------|----------------|--------------------------------------|
D|----------------|----------------|--------------------------------------|
A|----------------|----------------|--------------------------------------|
E|----------------|----------------|--------------------------------------|

enjoy.......



************************************

| h  Hammer-on
| p  Pull-off
| b  Bend
| /  Slide up
| \  Slide down
| ~  Vibrato
| P  Pop

************************************

            
            
Suggest correction
Creating personal tab
Creating personal tab
You can edit any tab online and save it as your Personal.

You can edit, replace or remove any tab part or add personal notes – all changes will be seen only by you.

Personal tabs can be accessed anytime from any device, even offline.
Learn more »
comments
print report bad tab
235 comments total. Showing first comments.
-1 reply
elvin_guitar 397 Jan 23, 2007 01:06 AM

Sowee p0h ah... update ko n lng lead sa adlib.... cenxa n tlga.. hope u like it. pkirate mo to pls......

-1 reply
guitar_elvin 10 Jan 29, 2007 11:39 PM

Eto p0h ung Lead part sa Adlib.... dto ko n lng p0h ilgay kc di ko p0h alm kung pnu i-edit ung tabs eh.... ung chords p0h pla sa REFRAIN ay: F#m-B-F#m-B-F#m-B-A-B....

Guitar 1:
e|------------------------------------------|
B|------------------------------------------|
G|--99999999--44444444--66666666------------|
D|--99999999--44444444--66666666--77777777--| 2x
A|--77777777--22222222--44444444--77777777--|
E|--------------------------------55555555--|

Guitar 2:
e|--------------------------------------------9-9/12~~--|
B|---------------121212-111111-101010-999-888-----------|
G|--------7-9/12~---------------------------------------|
D|----7h9-----------------------------------------------|
A|-7h9--------------------------------------------------|
E|------------------------------------------------------|

e|--------------------------------------------------------
B|--------------------------------------------------------
G|-13--14--15--16--17--17----17-16--17-16--17-16--17-16--
D|---12--12--13--14--15-----16-----16-----16-----16-------
A|--------------------------------------------------------
E|--------------------------------------------------------

Continuation........
--17-16--17-16--17-16--17-16---------------------------------
-16-----16-----16-----16-----161616-151515-14-14/15-14-0-14--
-------------------------------------------------------------
-------------------------------------------------------------
-------------------------------------------------------------
-------------------------------------------------------------

Continuation........
-----------------------------------------|
-121212-111111-101010-999-888-77-66-55~--|
-----------------------------------------|
-----------------------------------------|
-----------------------------------------|
-----------------------------------------|

0 reply
penelope_024 10 Feb 05, 2007 12:30 AM

elvin. ako unang mag-cocomment haha.
pwede bang sa friendster na lang?

so anyway. ayon sa kuya ko: a la proffesional daw gawa mo.
eeh. laki ulo.

so. ayun.. di ko pa yan naiintindihan. pero pagnaturuan mo na ako mag-gitara malalaman ko na yan :D

pero. ikaw nag-introduce sa akin ng song na yan.

thanks. such a wonderful song.

next mo naman ang A promise. ;)

guest
You may want to rate the tab now too:
select rating
Wanna post a correction for this tab? Suggest correction