Oops, an error
Loading. Please wait.

Magbalik bass

version 6
2,993 views 3 this week
1 commentread comment
1 2 3 4 5
2 more votes to show rating
add to favorites
×
Save as Personal and add changes to this tab that will be seen only by you. Learn more ›
×
You can save this tab as Personal to edit and correct it or add notes. All changes will be seen only by you. Learn more »
launch autoscroll
font size
0
reset
guitar tuner
edit
Autoscroll
slow
fast
+/-
esc
set tempo
stop
Author
Difficulty
===============================================================================
                             Magbalik - Callalily
===============================================================================
Tabbed by: Joshua Imperial
Facebook: http://www.facebook.com/BassistJosh 
Please Rate my Work! :)

Intro
G|------11/13-------------------11/13----------------------------------------|
D|---9-------------9/11------9--------------9/11-----------------------------|
A|-7------------7----------7--------------7----------------------14/0--------|
E|------------5-------------------------5------------------------------------|

G|---------------------------------------------------------------------------|
D|---------------------------------------------------------------------------| 2x
A|---------------------------------------------------------------------------|
E|--0-0-0-0-----7-7-7-7----9-9-9-9------5-5-5-5------------------------------|

Verse I
G|---------------------------------------------------------------------------|
D|-------------9-9/11-----11---7---------------------------------------------| 4x
A|--------7------------------------------------------------------------------|
E|---------------------------------------------------------------------------|

Refrain
G|---------------------4/6-4-------------------------------------------------|
D|--------------------------4-2h4-2------------------------------------------|
A|14/0---22-0h2-----22-----------------22-0h2--0000000-222222-2/14-14141414--|
E|----222-------222-----222---------222--------------------------------------|

G|---------------------------------------------------------------------------|
D|----------------2h4---2----------------------------------------------------|
A|---------2h4---------------------------------------------------------------|
E|---------------------------------------------------------------------------|


Chorus
"Tulad ng ilog na hindi"
G|---------------------------------------------------------------------------|
D|---------------------------------------------------------------------------|
A|---------------------------------------------------------------------------|
E|--0-0-0-0-----7-7-7-7----9-9-9-9------5-5-5-5------------------------------|

Verse II
G|---------------------------------------------------------------------------|
D|-------------9-9/11-----11---7---------------------------------------------| 4x
A|--------7------------------------------------------------------------------|
E|---------------------------------------------------------------------------|

Refrain
G|---------------------4/6-4-------------------------------------------------|
D|--------------------------4-2h4-2------------------------------------------|
A|14/0---22-0h2-----22-----------------22-0h2--0000000-222222-2/14-14141414--|
E|----222-------222-----222---------222--------------------------------------|

Chorus
G|---------------------------------------------------------------------------|
D|---------------------------------------------------------------------------|
A|---------------------------------------------------------------------------|
E|--0-0-0-0-----7--------9-9-9-9--------5-5-5-5------------------------------|

G|---------------------------------------------------------------------------|
D|---------------------------------------------------------------------------|
A|---------------------------------------------------------------------------|
E|--0-0-0-0-----7---7\0-------9-9-9-9--------5-5-5-5-------------------------|

Adlib
(Pakinggan nyo na lang po ung adlib tapos i-timing nyo po ito)
G|---------------------------------------------------------------------------|
D|-------------------222-444-666-444-222-------------------------------------|
A|-4444-2222-0000--0---------------------4444-------0000-0000----------------|
E|---------------------------------------------7777--------------------------|


Chorus
"Tulad ng ilog na hindi"
G|---------------------------------------------------------------------------|
D|---------------------------------------------------------------------------| 3x
A|---------------------------------------------------------------------------|
E|--0-0-0-0-----7-7-7-7----9-9-9-9------5-5-5-5------------------------------|





| /  slide up
| \  slide down
| h  hammer-on
| p  pull-off
| ~  vibrato
| +  harmonic
| x  Mute note
===============================================================================

            
            
Suggest correction
Creating personal tab
Creating personal tab
You can edit any tab online and save it as your Personal.

You can edit, replace or remove any tab part or add personal notes – all changes will be seen only by you.

Personal tabs can be accessed anytime from any device, even offline.
Learn more »
Give kudos to tab author, rate the tab!
1 2 3 4 5
comments
print report bad tab
1 comment total.
0 reply
sgtpanget 10 May 15, 2015 10:36 PM

MARMING salamat po sana magbigay pa kau ng tabs sa BASS guitar SALAMAT po

guest
You may want to rate the tab now too:
select rating
Wanna post a correction for this tab? Suggest correction