Oops, an error
Loading. Please wait.

Magbalik bass

version 8
1,156 views 3 this week
no commentswrite comment
1 2 3 4 5
x 3
add to favorites
×
Save as Personal and add changes to this tab that will be seen only by you. Learn more ›
×
You can save this tab as Personal to edit and correct it or add notes. All changes will be seen only by you. Learn more »
launch autoscroll
font size
0
reset
guitar tuner
edit
Autoscroll
slow
fast
+/-
esc
set tempo
stop
Author
Difficulty
-------------------------------------------------------------------------------------------------
                                     Magbalik - Callalily
-------------------------------------------------------------------------------------------------

Tabbed by: Januel Van Christian  
E-mail: januelvanchristian@yahoo.com/gmail.com

Tuning: Standard

Intro :
   E        E   (2x)   E              B                C#              A
G|---11/13-----------|-----------------------------------------------------------------|
D|--9---------9/11---|-----------------------------------------------------------------|
A|-----------7-------|----------------2-2-2-2-2-2-2-2--4-4-4-4-4-4-4-4-----------------|
E|-0--------0--------|-0-0-0-0-0-0-0-0---------------------------------5-5-5-5-5-5-5-5-|

Counter Intro :
   E            E    B            B    C#          C#   A
G|-------------------------------------------------------------|
D|------------------------------------------------------7------|
A|-7-7-7-7-7-7-7-7--2-2-2-2-2-2-2-2--4-4-4-4-4-4-4-4---7-------|
E|--------------7-7\-------------2-2/-------------4-4-5--------|

Verse :
   E  E B  B   C#C# A    [ E  B B  C# C# A  2x ] E B B C#   C# A
G|---------4-4/6--6---9--|----4-4-4/6--6---9---|---4-4-4/6--6-------------|
D|-----------------------|---------------------|--------------------------|
A|------2----------0-----|---------------0-----|---------------0----------|
E|-0--0------------------|-0-------------------|-0----------------12\-----|

Refrain :
   F# F#   B B     F# F#   B   C#-B-A-E-F# F#   B  B
G|-----------------------------------------------------------------|
D|-------------9-------------9/11-9-7------------------------------|
A|------------9-------------9--------7-9/--------------------------|
E|-2-2-2-2/7-7---7\2-2-2-2/7-------------2-2-2-2/7-7-7-7\5---------|

   A                B                B  
G|-----------------------------------------------------------------|
D|-----------------------------------------------------------------|
A|-----------------------------------14-14-14-14-14-14-14-14-\-----|
E|-5-5-5-5-5-5-5-5--7-7-7-7-7-7-7-7-/------------------------------|

Chourus :
   E   E           B        C#       A
G|---|-------------------------------------------------|
D|---|-------------------------------------------------|
A|---|-------------2-2-2-2--4-4-4-4--------------------|
E|-0-|-12\0-0-0-2h4-------2/-------4/5-5-5-5/----------|

Repeat :
        --- Counter Intro --- Verse --- Refrain ---

Chorus* :
   E        B   C#         A          E        B      C#       A           
G|------------|----------------------------------|----------------------------|
D|------------|----------------------------------|-11/------------------------|
A|----------2-|-4-4-4-4-4----------------------2-|----4-4-4-4-4---------------|
E|-0-0-0-0-2--|----------4/5-5-5-5-7/-0-0-0-0-2--|-------------5-5-5-5-5\-----|

Intrumentals :
   C#                  B                  A               B
G|--------------------------------------------------------------------------------|
D|--------------------------------------------------------------------------------|
A|-44444-44-7777-6666\-22222-22/7777-6666------------------4-46-67-79-9-11-9\-----|
E|----------------------------------------55555-55555-5-5h7-----------------------|

   C#                   B                 A               B
G|-------------------------------------------------------------------------------|
D|-------------------------------------------------------------------------------|
A|-44444-44-7777-6666\-22222-22/7777-6666-----------------22222-2/14-(running)\--|
E|----------------------------------------55555-55555-5-5------------------------|

Repeat : 
               -------- Chorus --- Counter Intro ----
                  ----------- THE END ------------


| Upper Chords are only the chords patterns 
| /  slide up
| \  slide down
| h  hammer-on
| p  pull-off
| ~  vibrato
| +  harmonic
| x  Mute note
=================================================================================================

 This is my BASS COVER .. sana magustuhan nyo .. sabayan nyo lang ung song timming lang po ..

 please rate my work thanks :)
Suggest correction
Creating personal tab
Creating personal tab
You can edit any tab online and save it as your Personal.

You can edit, replace or remove any tab part or add personal notes – all changes will be seen only by you.

Personal tabs can be accessed anytime from any device, even offline.
Learn more »
Give kudos to tab author, rate the tab!
1 2 3 4 5
comments
print report bad tab
guest
You may want to rate the tab now too:
select rating
Wanna post a correction for this tab? Suggest correction