Oops, an error
Loading. Please wait.

Magbalik Tab

version 9
19,071 views 189 this week
no commentswrite comment
1 2 3 4 5
excellent!
x 3
add to favorites
launch autoscroll
font size
0
reset
how to read this tab
guitar tuner
Tab Pro tools
  • play this tab
  • loop segment
  • change instrument
  • show fretboard
  • metronome
Autoscroll
slow
fast
+/-
esc
set tempo
stop
Contributor
Difficulty
intermediate
Magbalik
 by : Callalily

Intro:

eto ang bass part pero ginawa ko sa normal lang na guitar.

|---------------|--------------|
|---------------|--------------|
|---------------|--------------|
|----4/6--------|--------------|
|--2------------|--2--2/4------|
|0--------------|0-------------|  2x


then papasok ung 2 guitars 

(Guitar 1) (Distortion)
|---------------|----------------|---------------|---------------|
|---------------|----------------|---------------|---------------|
|---------------|------4444------|------6666-----|---------------|
|------5555-----|------4444------|------6666-----|-----7777------|
|------7777-----|------2222------|------4444-----|-----7777------|
|------7777-----|----------------|---------------|-----5555------| 2x

(Guitar 2) (Distortion)
|-----7--------------|-----7--------------|----7-----------------------|
|---5---7-5-7/9-7----|---5--7-5-7/9-7-----|--5---7-5-7-9-10-9---10-9---|
|--------------------|--------------------|-------------------9------9-|
|--------------------|--------------------|----------------------------|
|--------------------|--------------------|----------------------------|
|--------------------|--------------------|----------------------------|

|-----7--------------|-----7--------------|----7-----------------------|
|---5---7-5-7/9-7----|---5--7-5-7/9-7-----|--5---7-5-7-7/9-9/10-9-9/12~|
|--------------------|--------------------|----------------------------|
|--------------------|--------------------|----------------------------|
|--------------------|--------------------|----------------------------|
|--------------------|--------------------|----------------------------|


Verse 1:

(Guitar 1) (without distortion or acoustic)
        E                 B              C#m               A
|------0000------|------2222------|------4444------|------0000------|
|------0000------|------4444------|------5555------|------2222------|
|------1111------|------4444------|------6666------|------2222------|
|------2222------|------4444------|------6666------|------2222------|
|------2222------|------2222------|------4444------|------0000------|
|----------------|------2222------|------4444------|----------------| 4x

(Guitar 2) wala akong bass guitar kaya eto.. wala ring distortion

|----------------|----------------|----------------|----------------|
|----------------|----------------|----------------|----------------|
|----------------|----------------|----------------|----------------|
|----------------|----------------|----------------|----------------|
|----------------|------(2)-------|------2/4-------|-------4p0------|
|------(0)-------|----------------|----------------|----------------| 4x

Refrain:
(Guitar 1)(Distortion)
|----------------|----------------|    |----------------|----------------|
|----------------|----------------|    |----------------|----------------|
|----------------|------4444------|    |----------------|----------------|
|------4444------|------4444------|    |------7777------|------9999------|
|------2222------|------2222------|    |------7777------|------9999------|
|------2222------|----------------| 3x |------5555------|------7777------|

Fill in:

(Guitar 1) (Distortion)
|----------------|
|----------------|
|----------------|
|----------------|
|---------7h9p7--|
|---7-7-9--------|


Chorus:

(Guitar 2) (walang distortion or acoustic)
        E                 B              C#m               A
|------0000------|------2222------|------4444------|------0000------|
|------0000------|------4444------|------5555------|------2222------|
|------1111------|------4444------|------6666------|------2222------|
|------2222------|------4444------|------6666------|------2222------|
|------2222------|------2222------|------4444------|------0000------|
|----------------|------2222------|------4444------|----------------|

(Guitar 1) (Distortion)

|---------------|----------------|---------------|---------------|
|---------------|----------------|---------------|---------------|
|---------------|------4444------|------6666-----|---------------|
|------5555-----|------4444------|------6666-----|-----7777------|
|------7777-----|------2222------|------4444-----|-----7777------|
|------7777-----|----------------|---------------|-----5555------|....


then...
(Guitar 1) (Distortion)

|---------------|----------------|---------------|---------------|
|---------------|----------------|---------------|---------------|
|---------------|------4444------|------6666-----|---------------|
|------5555-----|------4444------|------6666-----|-----7777------|
|------7777-----|------2222------|------4444-----|-----7777------|
|------7777-----|----------------|---------------|-----5555------|

(Guitar 2) (Distortion)

|-----7--------------|-----7--------------|----7-----------------------|
|---5---7-5-7/9-7----|---5--7-5-7/9-7-----|--5---7-5-7-9-10-9---10-9---|
|--------------------|--------------------|-------------------9------9-|
|--------------------|--------------------|----------------------------|
|--------------------|--------------------|----------------------------|
|--------------------|--------------------|----------------------------|

then...

Verse 2:

(Guitar 1) (without distortion or acoustic)
        E                 B              C#m               A
|------0000------|------2222------|------4444------|------0000------|
|------0000------|------4444------|------5555------|------2222------|
|------1111------|------4444------|------6666------|------2222------|
|------2222------|------4444------|------6666------|------2222------|
|------2222------|------2222------|------4444------|------0000------|
|----------------|------2222------|------4444------|----------------| 4x

PERO sa pag abot ng pangatlong beses papasok ung guitar 2 PERO soft strum lang at tig iisa lang....

(Guitar 2) (Distortion)
|---------------|----------------|---------------|---------------|
|---------------|----------------|---------------|---------------|
|---------------|------4444------|------6666-----|---------------|
|------5555-----|------4444------|------6666-----|-----7777------|
|------7777-----|------2222------|------4444-----|-----7777------|
|------7777-----|----------------|---------------|-----5555------| 2x

Refrain:

(Guitar 1)(Distortion)
|----------------|----------------|    |----------------|----------------|
|----------------|----------------|    |----------------|----------------|
|----------------|------4444------|    |----------------|----------------|
|------4444------|------4444------|    |------7777------|------9999------|
|------2222------|------2222------|    |------7777------|------9999------|
|------2222------|----------------| 3x |------5555------|------7777------|

Chorus:

(Guitar 1) (Distortion)
|---------------|----------------|---------------|---------------|
|---------------|--------p-------|---------------|---------------|
|---------------|------4-a-------|------6666-----|---------------|
|------5555-----|------4-u-------|------6666-----|-----7777------|
|------7777-----|------2-s-------|------4444-----|-----7777------|
|------7777-----|--------e-------|---------------|-----5555------|2x

SOLO:

(Guitar 1) (Distortion)
|---------------|---------------|-----------------------------|
|---------------|---------------|-----------------------------|
|------9999-----|---------------|-----------------------------|
|------9999-----|------9999-----|------77777777777777---------|
|------7777-----|------9999-----|------77777777777777---------|
|---------------|------7777-----|------55555555555555---------|

|---------------|---------------|-----------------------------|
|---------------|---------------|-----------------------------|
|------6666-----|------4444-----|-----------------------------|
|------6666-----|------4444-----|------77777777777777---------|
|------4444-----|------2222-----|------77777777777777---------|
|---------------|---------------|------55555555555555---------|

(Guitar 2) (Distortion)

|-------------------------------------------------------------|
|--------------------------12-12-12-12-10-10-10-10-9-9-9-9--7-|
|-------------6h8h9--11-11------------------------------------|
|-------6h7h9-------------------------------------------------|
|---6h7-------------------------------------------------------|
|-------------------------------------------------------------|

|-7/12-12~--12~-14~-16~-14-12-12-11--------12-11--12-11--12-11--12-11----|
|----------------------------------------12-----12-----12-----12---------|
|------------------------------------------------------------------------|
|------------------------------------------------------------------------|
|------------------------------------------------------------------------|
|------------------------------------------------------------------------|

|----17-16---17-16---17-16-----17-16------12-12-11-11--------------------|
|-12-------17------17-------17--------17---------------12----------------|
|----------------------------------------------------------9h11--11b13---|
|------------------------------------------------------------------------|
|------------------------------------------------------------------------|
|------------------------------------------------------------------------|

|------------------------------------------------------------------------|
|----------------------10-10-10------------------------------------------|
|--9------9h11p9--9-9-----------9-9-9-9----------------------------------|
|-----11---------------------------------9-9-9-9--7-7-7-7--6h7p6---------|
|-----------------------------------------------------------------7~-----|
|------------------------------------------------------------------------|


then..
(Guitar 1) (walang distortino or acoustic)

        E                 B              C#m               A
|------0000------|------2222------|------4444------|------0000------|
|------0000------|------4444------|------5555------|------2222------|
|------1111------|------4444------|------6666------|------2222------|
|------2222------|------4444------|------6666------|------2222------|
|------2222------|------2222------|------4444------|------0000------|
|----------------|------2222------|------4444------|----------------|

then..
(Guitar 1) (Distortion)
|---------------|-----------------|---------------|---------------|
|---------------|-----------------|---------------|---------------|
|---------------|------4444-------|------6666-----|---------------|
|------5555-----|------4444-------|------6666-----|-----7777------|
|------7777-----|------2222-------|------4444-----|-----7777------|
|------7777-----|-----------------|---------------|-----5555------|2x

then...
(Guitar 1) (Distortion)

|---------------|----------------|---------------|---------------|
|---------------|----------------|---------------|---------------|
|---------------|------4444------|------6666-----|---------------|
|------5555-----|------4444------|------6666-----|-----7777------|
|------7777-----|------2222------|------4444-----|-----7777------|
|------7777-----|----------------|---------------|-----5555------|2x

(Guitar 2) (Distortion)

|-----7--------------|-----7--------------|----7-----------------------|
|---5---7-5-7/9-7----|---5--7-5-7/9-7-----|--5---7-5-7-9-10-9---10-9---|
|--------------------|--------------------|-------------------9------9-|
|--------------------|--------------------|----------------------------|
|--------------------|--------------------|----------------------------|
|--------------------|--------------------|----------------------------|

|-----7--------------|-----7--------------|----7-----------------------|
|---5---7-5-7/9-7----|---5--7-5-7/9-7-----|--5---7-5-7-7/9-9/10-9-9/12~|
|--------------------|--------------------|----------------------------|
|--------------------|--------------------|----------------------------|
|--------------------|--------------------|----------------------------|
|--------------------|--------------------|----------------------------|


.....thats all.....
thanks sa inyo...:))

Tabbed by:Lavern Vasallo
Date     :April 25, 2013
add me on facebook Just Search my name..:))
comments
We did not receive enough feedback on this tab! Please rate:
print report bad tab
1 2 3 4 5
I want to post or [tab]
guest
You may want to rate the tab now too:
select rating
Please do not post tabs as comments. Select "correction" instead!