Oops, an error
Loading. Please wait.

Pansamantala Chords

version 2
version 2

Whole song

344,431 views 1,407 this week
3 commentsread comments
1 2 3 4 5
x 17
add to favorites
launch autoscroll
font size
0
reset
transpose
0
reset
simplify chords
display chords
guitar tuner
Autoscroll
slow
fast
+/-
esc
set tempo
stop
Help us to improve Ultimate-Guitar.com Take our survey!
×
Author
Difficulty
novice
[Intro]

G D/F# Em7 C9
G D/F# Em7 C9


[Verse 1]

G             D/F#
Siya na ang mayaman
                Em7       C9
Siya na ang may oto, siya na
 G            D/F#     Em7  
Siya na ang meron ng lahat 
              C9
Ng bagay na wala ako
 G           D/F#   Em7     C9
'Di mo man sabihin, aking napapansin
 Am             G/B 
Kapag nalagay ka sa alanganin
 C9       D       Dsus4
Heto na naman tayo


[Chorus]

      G          D/F#
Pansamantalang unan
           Em7         C9
Sa tuwing ika'y nahihirapan
 G                D/F#
Pansamantalang panyo 
           Em7         C9
Sa tuwing ika'y nasasaktan


[Verse 2]

G     D/F#          Em7          C9
Bakit ba sa akin na lang palagi ang takbo
G              D/F#  
Sa tuwing kayo ay may away
Em7          C9
Ako ang lagi mong karamay
G          D/F#   C9 (strum once)
Di naman tayo, hindi
           D
Diba't hindi


[Chorus]

      G          D/F#
Pansamantalang unan
           Em7         C9
Sa tuwing ika'y nahihirapan
 G                D/F#
Pansamantalang panyo 
           Em7         C9
Sa tuwing ika'y nasasaktan


[Bridge]

   Em7           C9    
Kaibigan lang bang maituturing
    Em7                C9
Ang hirap naman yatang mangapa sa dilim
Em7              C9              D    Dsus4 
Sino nga ba talaga sa amin ang iyong


[Chorus]

      G          D/F#
Pansamantalang unan
           Em7         C9
Sa tuwing ika'y nahihirapan
 G                D/F#
Pansamantalang panyo 
           Em7         C9
Sa tuwing ika'y nasasaktan


[Outro]

     G     D/F#
Pansamantala
     Em7   C9
Pansamantala
     G     D/F#
Pansamantala
           Em7  C9 
Tanggap ko na

End on G
Suggest correction
comments
print report bad tab
3 comments total.
0 reply
Newb2013 10 Dec 29, 2013 03:35 PM

wow, i think this is good, boss pwede maki suyo,paki lagyan din ng tab sa into please.. thanks in advance!

0 reply
yerynnek 10 Feb 01, 2014 06:09 AM


version 1
E|------------------------------------------|----------------------------|
B|------0---0-3-0-------------0-----------0-|3-0-------------0-----------|
G|--0-2---2-------2-----0-0-2---2-0-----0---|----2-----0-0-2---2-0-------|
D|0-----------------0-2-------------2-0-----|------0-2-------------2-0---|
A|------------------------------------------|----------------------------|
E|------------------------------------------|----------------------------|

version 2
E|---------------------------------------|--------------------------------------|
B|---------3-0---------------0-----------|------3-0---------------0-------------|
G|-0-2-2\4------2-----0--0\2---2-0-------|0-2/4------2-----0--0\2---2-0---------|
D|0--------------0-0\2-------------0\2-0-|------------0-0\2-------------0\2-0---|
A|---------------------------------------|--------------------------------------|
E|---------------------------------------|--------------------------------------|


pili nalang kayo.. mas prefer ko second with sliding.. sabayan niyo nalang song.
have fun ang enjoy! :-)

0 reply
kaizen.buenaven 10 May 07, 2015 10:59 AM

Ayos naman po lahat. Pero sa tinggin ko lang po dun sa part ng "Diba't hindi", mas magandang kung C9 instead na D. Yun lang, thanks po.

guest
You may want to rate the tab now too:
select rating
Wanna post a correction for this tab? Suggest correction