Oops, an error
Loading. Please wait.

Pansamantala Tab

version 2
version 2

Whole song

3,210 views 3 this week
no commentswrite comment
1 2 3 4 5
please rate
add to favorites
launch autoscroll
font size
0
reset
how to read this tab
guitar tuner
Autoscroll
slow
fast
+/-
esc
set tempo
stop
Help us to improve Ultimate-Guitar.com Take our survey!
×
Author
Difficulty
novice
                                        Pansamantala
                                             by:
                                          Callalily

Standard Tunning

Intro:


e|--------------------------------------------------------------------|  
B|-----------0------0-----------------------------------0-------------| 
G|-----0--2-------------2----0---------------0------2------2---0------|
D|--0-------------------------------0-0h2-----------------------------|   
A|--------------------------------------------------------------------|
E|--------------------------------------------------------------------|


e|--------------------------------------------------------------------|  
B|------------0---------------------------------------0---------------| 
G|-----2/4----------2----0------------------0-----2-------2---0-------|
D|--0-------------------------------0-0h2-----------------------------|   
A|--------------------------------------------------------------------|
E|--------------------------------------------------------------------|




1st Tab ko :)
Pakingan nyu na lang yung kanta para magets niyu
Suggest correction
Give kudos to tab author, rate the tab!
1 2 3 4 5
comments
print report bad tab
guest
You may want to rate the tab now too:
select rating
Please do not post tabs as comments. Select "correction" instead!