Oops, an error
Loading. Please wait.

Pasan Tab

version 1
version 1

Whole song

Interactive

25,857 views 39 this week
4 commentsread comments
1 2 3 4 5
x 22
add to favorites
×
Save as Personal and add changes to this tab that will be seen only by you. Learn more ›
×
You can save this tab as Personal to edit and correct it or add notes. All changes will be seen only by you. Learn more »
save as personal
new!
launch autoscroll
font size
0
reset
how to read this tab
guitar tuner
Autoscroll
slow
fast
+/-
esc
set tempo
stop
Difficulty
intermediate
Title: Pasan
Artist: Callalily
Tabbed by: Jerome Yabut
Album: Destination XYZ  


Gtr.Tuning:Standard

Intro:
e|-22222-------55555----------------------|
B|-22222-------55555----------------------|
G|-22222-11111-77777----------------------| 2x
D|-33333-22222-77777----------------------|
A|-33333-22222-55555----------------------|
e|-22222-XXXXX----------------------------|
            


e|-------10----------7-5-3---------|
B|--7-8------8-7-------------------|
G|----------------7----------------|    2X
D|---------------------------------|
A|---------------------------------|
e|---------------------------------|

Verse

e|-22222-------55555----------------------|
B|-22222-------55555----------------------|
G|-22222-11111-77777----------------------| 2x
D|-33333-22222-77777----------------------|
A|-33333-22222-55555----------------------|
e|-22222-XXXXX----------------------------|

Pre-chorus:

e|-22222-------55555----------------------|
B|-22222-------55555----------------------|
G|-22222-11111-77777----------------------| 2x
D|-33333-22222-77777----------------------|
A|-33333-22222-55555----------------------|
e|-22222-XXXXX----------------------------|

e|-44444-55555---------------------------------|
B|-44444-55555---------------------------------|
G|-66666-77777---------------------------------| 3x
D|-66666-77777---------------------------------|
A|-44444-55555---------------------------------|
e|---------------------------------------------|

e|------------------------|
B|------------------------|
G|--1---------------------| 1X
D|--2---------------------|
A|--2---------------------|
e|--X---------------------|

Chorus:
e|-22222-------55555----------------------|
B|-22222-------55555----------------------|
G|-22222-11111-77777----------------------| 2x
D|-33333-22222-77777----------------------|
A|-33333-22222-55555----------------------|
e|-22222-XXXXX----------------------------|


Lead:
e|-------10----------7-5-3---------|
B|--7-8------8-7-------------------|
G|----------------7----------------|    2X
D|---------------------------------|
A|---------------------------------|
e|---------------------------------|

refrain:
e|-22222-------55555----------------------|
B|-22222-------55555----------------------|
G|-22222-11111-77777----------------------| 2x
D|-33333-22222-77777----------------------|
A|-33333-22222-55555----------------------|
e|-22222-XXXXX----------------------------|


chorus 2:
e|-22222-------55555----------------------|
B|-22222-------55555----------------------|
G|-22222-11111-77777----------------------| 2x
D|-33333-22222-77777----------------------|
A|-33333-22222-55555----------------------|
e|-22222-XXXXX----------------------------|

            repeat chorus 2

Lead:
e|-------10----------7-5-3---------|
B|--7-8------8-7-------------------|
G|----------------7----------------|    2X
D|---------------------------------|
A|---------------------------------|
e|---------------------------------|

outro:

e|-22222-------55555----------------------|
B|-22222-------55555----------------------|
G|-22222-11111-77777----------------------| 1x
D|-33333-22222-77777----------------------|
A|-33333-22222-55555----------------------|
e|-22222-XXXXX----------------------------|

         
Lyrics

Verse:

nasaan na ang tapang at lakas ng 'yong loob
ngayo'y karuwagan na lang ba ang iyong sagot?


Pre-chorus:

umihip ang hangin sa langit ako'y napatingin
ulap ay sadyang kaydilim, tila yata may bagyong parating
bakit ka lumuluha?
bakit nagtataka?
akala mo ba ika'y iniwan na


Chorus:

hindi, pasan kita
hindi mo ba nakikita?
hindi ka na sa akin ay luluha pa


Instrumental: 


Adlib:

                      
hindi ko naman hangad ang anumang bagay sa mundo

ang tanging hinihiling ko lamang ay yakapin mo


Chorus2: 

at ngayon, pasan kita
ngayon mo na nakikita
hindi ka na sa akin ay luluha pa


TNX..... HIndi ako sure kung ilang strumming pero sure 
ako sa tab and lead...

add nyo ko sa friendster jerome_yabut@yahoo.com...
Suggest correction
comments
print report bad tab
4 comments total. Showing first comments.
0 reply
penumbra43 42 Aug 24, 2007 10:10 PM

la kwenta tong tab na to ako kc ung gumawa eh.. mali ako ng type ng tab.. sorry guyz

0 reply
ZONE4ever 10 Aug 25, 2007 05:19 AM

mali lang yung lead. ^^

0 reply
arlo110 20 May 04, 2009 01:48 AM

yung intro ko ganito:::

|----------10----------------------------------------|-
|--7--8-----------8--7--------7s12---10--8-8888------| -
|------------------------7---------------------------| -
|----------------------------------------------------| - (2x)
|----------------------------------------------------| -
|----------------------------------------------------|-

guest
Wanna post a correction for this tab? Suggest correction