Oops, an error
Loading. Please wait.

Pasan Chords

version 2
version 2

Whole song

Interactive

19,782 views 39 this week
no commentswrite comment
1 2 3 4 5
x 4
add to favorites
launch autoscroll
font size
0
reset
transpose
0
reset
display chords
guitar tuner
×
Best way to learn
"Pasan"
Autoscroll
slow
fast
+/-
esc
set tempo
stop
Author
[Intro]
E D C (2x)

[B C D](2x)

[Guitar 1]
E D C (2x)

[Guitar 2]
e|---------10---------7--5-------|
B|---7--8-----8--7----------8----|
G|-------------------7-----------|
D|-------------------------------|
A|-------------------------------|
E|-------------------------------|

[Verse: E D C](2x)
Naglalakbay sa gitna ng dalampasigan
Minamasdan ang alon
Na humahampas sa nakaraan

[G D C](2x)
Umihip ang hangin
Sa langit ako'y napatingin
Ulap ay sadyang kaydilim
Tila yata may bagyong parating

[Pre Chorus : B C](3x) D
Bakit ka lumuluha?
Bakit nagtataka?
Akala mo ba, ika'y iniwan na?

[Chorus : G D C B A C]
Hindi, pasan kita
Hindi mo ba nakikita
Hindi ka na, sa akin ay luluha pa...

[Guitar 1]
[E D C](2x)

[Guitar 2]
e|---------10---------7--5-------|
B|---7--8-----8--7----------8----|
G|-------------------7-----------|
D|-------------------------------|
A|-------------------------------|
E|-------------------------------|

[Verse: E D C](2x)
Nasaan na ang tapang
At lakas ng 'yong loob
Ngayo'y karuwagan na lang ba
Ang iyong sagot

[G D C](2x)
Umihip ang hangin
Sa langit ako'y napatingin
Ulap ay sadyang kaydilim
Tila yata may bagyong parating

[Pre Chorus: B C (3x) D]
Bakit ka lumuluha?
Bakit nagtataka?
Akala mo ba, ika'y iniwan na?

[Chorus : G D C B A C]
Hindi, pasan kita
Hindi mo ba nakikita
Hindi ka na, sa akin ay luluha pa...

[Guitar 1]
[E D C](2x)

[Guitar 2]
e|---7—5-------------------5-------|
B|----------8----------------------|
G|-------------9—7-----------------|
D|--------------------5—7----------|
A|---------------------------------|
E|---------------------------------|

e|---7—5----------------------------|
B|----------8-----------8----8------|
G|-------------9—7--9---9-7---------|
D|----------------------------------|
A|----------------------------------|
E|----------------------------------|

[Bridge : A B C (2x) D]
Hindi ko naman hangad
Ang anumang bagay sa mundo
Ang tanging hinihiling ko lamang
Ay yakapin mo

[Chorus : B C B D C B C]
At ngayon, pasan kita
Ngayon mo na makikita
Hindi ka na, sa akin ay luluha pa

[G D C B A C]
At ngayon, pasan kita
Ngayon mo na makikita
Hindi ka na, sa akin ay luluha pa...

[Outro]

[Guitar 1]
[E D C](2x)

[Guitar 2]
e|---------10---------7--5-----------|
B|---7--8-----8--7----------8--------|
G|-------------------7---------------|
D|-----------------------------------|
A|-----------------------------------|
E|-----------------------------------|

[B C D (2x)G]
Suggest correction
comments
print report bad tab
guest
You may want to rate the tab now too:
select rating
Wanna post a correction for this tab? Suggest correction