Oops, an error
Loading. Please wait.

Song For The Youth tab

263 views 1 this week
no commentswrite comment
1 2 3 4 5
3 more votes to show rating
add to favorites
×
Save as Personal and add changes to this tab that will be seen only by you. Learn more ›
×
You can save this tab as Personal to edit and correct it or add notes. All changes will be seen only by you. Learn more »
launch autoscroll
font size
0
reset
how to read this tab
guitar tuner
edit
Autoscroll
slow
fast
+/-
esc
set tempo
stop
Title: Song For The Youth
Artist: Callalily
Album: Fisheye
Tabbed by: Mark Jesson Galera

For any comments and Suggestion:

Text Me: 09198408399
Friendster: boybassista@yahoo.com

        This is the new song of Callalily from their new album      
                              "Fisheye"..
                Kung may mali man,..pakicomment kaagad..tnx!

Tuning: Standard

Intro:

Guitar 2:

e-------------2~------5~-------3~--------5~--|
b----------5~--------5~-------3~--------5~---|
g-------4~---------6~--------4~--------6~----|
D-----4~---------7~---------5~--------7~-----|  2x
A---2~----------7~---------5~--------7~------|
E--------------5---------3~--------5---------|

Guitar 1: (0:15)
e---------------------------------------------------------------------------|
b--/-121212--101010-777-101010-777-1010-77-55~--/1212--1010--777-1010-------|
g--------------------------------------------------------------------1111---|
D---------------------------------------------------------------------------|
A---------------------------------------------------------------------------|
E---------------------------------------------------------------------------|

e------------------------------------------------------------------------------------|
b---121212--101010-777--101010---777--101010--777-55~-----1212--101010-777—/101010~--|
g------------------------------------------------------------------------------------|
D------------------------------------------------------------------------------------|
A------------------------------------------------------------------------------------|
E------------------------------------------------------------------------------------|

Then

e---------2~-----|
b--------2~------|
g------4~--------|
D----4~----------|
A—2~-------------|
E----------------|

Verse:

Guitar 2:
e-------------2~------5~-------3~--------5~--|
b----------5~--------5~-------3~--------5~---|
g-------4~---------6~--------4~--------6~----|
D-----4~---------7~---------5~--------7~-----|  
A---2~----------7~---------5~--------7~------|
E--------------5---------3~--------5---------|

Guitar 1:
e----------------------------|
b----------------------------|
g---4~----~------------------|
D---4~----7~------5~-----7~--|
A---2~----7~------5-~----7~--|
E---------5-------3~-----5-~-|

Chorus:

Guitar 2:
Raise your hand…..
e-------------2~------5~-------3~--------5~--|
b----------5~--------5~-------3~--------5~---|
g-------4~---------6~--------4~--------6~----|
D-----4~---------7~---------5~--------7~-----|  
A---2~----------7~---------5~--------7~------|
E--------------5---------3~--------5---------|

Guitar 1:
Raise your hand…..
e-----------------------------------|
b-----------------------------------|
g---4444----------------------------|
D---4444----7777----5555-----7777---|
A---2222----7777----5555-----7777---|
E-----------5555----3333-----5555---|

Scream your name….
e-----------------------------------|
b-----------------------------------|
g---4444----------------------------|
D---4444----7777----5555-----7777---|
A---2222----7777----5555-----7777---|
E-----------5555----3333-----5555---|

Intro:

Guitar 2:
e-------------2~------5~-------3~--------5~--|
b----------5~--------5~-------3~--------5~---|
g-------4~---------6~--------4~--------6~----|
D-----4~---------7~---------5~--------7~-----|  2x
A---2~----------7~---------5~--------7~------|
E--------------5---------3~--------5---------|

Guitar 1: 
e---------------------------------------------------------------------------|
b--/-121212--101010-777-101010-777-1010-77-55~--/1212--1010--777-1010-------|
g--------------------------------------------------------------------1111---|
D---------------------------------------------------------------------------|
A---------------------------------------------------------------------------|
E---------------------------------------------------------------------------|

e-------------------------------------------------------------------------------------|
b---121212--101010-777--101010---777--101010--777-55~-----1212--101010-777—/101010~---|
g-------------------------------------------------------------------------------------|
D-------------------------------------------------------------------------------------|
A-------------------------------------------------------------------------------------|
E-------------------------------------------------------------------------------------|

Then

e---------2~-----|
b--------2~------|
g------4~--------|
D----4~----------|
A—2~-------------|
E----------------|

Verse 2:

Guitar 2:
I was to blind to see..
e-------------2~------5~-------3~--------5~--|
b----------5~--------5~-------3~--------5~---|
g-------4~---------6~--------4~--------6~----|
D-----4~---------7~---------5~--------7~-----| 
A---2~----------7~---------5~--------7~------|
E--------------5---------3~--------5---------|

Guitar 1: (powerchords)

e----------------------------|
b----------------------------|
g---4~----~------------------|
D---4~----7~------5~-----7~--|
A---2~----7~------5-~----7~--|
E---------5-------3~-----5-~-|

Chorus:

Guitar 2:
Raise your hand…..
e-------------2~------5~-------3~--------5~--|
b----------5~--------5~-------3~--------5~---|
g-------4~---------6~--------4~--------6~----|
D-----4~---------7~---------5~--------7~-----|  
A---2~----------7~---------5~--------7~------|
E--------------5---------3~--------5---------|

Guitar 1:

Raise your hand…..
e-----------------------------------|
b-----------------------------------|
g---4444----------------------------|
D---4444----7777----5555-----7777---|
A---2222----7777----5555-----7777---|
E-----------5555----3333-----5555---|

Scream your name….
e-----------------------------------|
b-----------------------------------|
g---4444----------------------------|
D---4444----7777----5555-----7777---|
A---2222----7777----5555-----7777---|
E-----------5555----3333-----5555---|

Adlib: Bm-A-G-A-G

Chorus:

Guitar 2:
Raise your hand…..
e-------------6~------2~-------5~--------7~--|
b----------5~--------2~-------5~--------7~---|
g-------6~---------4~--------6~--------7~----|
D-----6~---------4~---------7~--------9~-----|  2x
A---4~----------2~---------7~--------9~------|
E-------------------------5~--------7~-------|

Guitar 1:

Chorus:

Guitar 2:
Raise your hand…..
e-------------2~------5~-------3~--------5~--|
b----------5~--------5~-------3~--------5~---|
g-------4~---------6~--------4~--------6~----|
D-----4~---------7~---------5~--------7~-----|  
A---2~----------7~---------5~--------7~------|
E--------------5---------3~--------5---------|

Guitar 1:

Raise your hand…..
e-----------------------------------|
b-----------------------------------|
g---4444----------------------------|
D---4444----7777----5555-----7777---|
A---2222----7777----5555-----7777---|
E-----------5555----3333-----5555---|

Scream your name….
e-----------------------------------|
b-----------------------------------|
g---4444----------------------------|
D---4444----7777----5555-----7777---|
A---2222----7777----5555-----7777---|
E-----------5555----3333-----5555---|

Intro:
 
Guitar 2:
e-------------222~------555~-------~333------------555~--|
b----------555~--------55~-------~--33------~---555------|
g-------444~---------666~---------444~--------666~-------|
D-----444~---------777~---------555~--------777~---------|  2x
A---222~----------777~--------555~--------777~-----------|
E--------------555---------333~--------555---------------|

Guitar 1: 
e---------------------------------------------------------------------------|
b--/-121212--101010-777-101010-777-1010-77-55~--/1212--1010--777-1010-------|
g--------------------------------------------------------------------1111---|
D---------------------------------------------------------------------------|
A---------------------------------------------------------------------------|
E---------------------------------------------------------------------------|

e-----------------------------------------------------------------------------------|
b---121212--101010-777--101010---777--101010--777-55~-----1212--101010-777—/101010~-|
g-----------------------------------------------------------------------------------|
D-----------------------------------------------------------------------------------|
A-----------------------------------------------------------------------------------|
E-----------------------------------------------------------------------------------|

Taz Percussion

Chorus: 2x

Chorus:

Guitar 2:
Raise your hand…..
e-------------2~------5~-------3~--------5~--|
b----------5~--------5~-------3~--------5~---|
g-------4~---------6~--------4~--------6~----|
D-----4~---------7~---------5~--------7~-----|  
A---2~----------7~---------5~--------7~------|
E--------------5---------3~--------5---------|

Guitar 1:

Raise your hand…..
e-----------------------------------|
b-----------------------------------|
g---4444----------------------------|
D---4444----7777----5555-----7777---|
A---2222----7777----5555-----7777---|
E-----------5555----3333-----5555---|

Scream your name….
e-----------------------------------|
b-----------------------------------|
g---4444----------------------------|
D---4444----7777----5555-----7777---|
A---2222----7777----5555-----7777---|
E-----------5555----3333-----5555---|
Suggest correction
Creating personal tab
Creating personal tab
You can edit any tab online and save it as your Personal.

You can edit, replace or remove any tab part or add personal notes – all changes will be seen only by you.

Personal tabs can be accessed anytime from any device, even offline.
Learn more »
Give kudos to tab author, rate the tab!
1 2 3 4 5
comments
print report bad tab
guest
You may want to rate the tab now too:
select rating
Wanna post a correction for this tab? Suggest correction