Oops, an error
Loading. Please wait.

Stars tab

version 5
version 5

Interactive

3,077 views 3 this week
no commentswrite comment
1 2 3 4 5
3 more votes to show rating
add to favorites
×
Save as Personal and add changes to this tab that will be seen only by you. Learn more ›
×
You can save this tab as Personal to edit and correct it or add notes. All changes will be seen only by you. Learn more »
launch autoscroll
font size
0
reset
how to read this tab
guitar tuner
edit
Autoscroll
slow
fast
+/-
esc
set tempo
stop
Author
                            Stars - Callalily



Tuning: Standard

Guitar 1: Clean (Lead)
Guitar 2: Clean and distortion (Rhythm)
Guitar 3: Distortion (Rhythm)
Guitar 4: Acoustic Guitar

  INTRO

  Guitar 1 (Lead) 0:00-0:23
e|--------------------------------------------------------------------|
B|------15------------------------------------------------------------|
G|12--12---12-14-14-14-14h16-14-12-12---------------------------------|
D|--------------------------------------------------------------------| X6
A|--------------------------------------------------------------------|
E|--------------------------------------------------------------------|

  Guitar 2 (Clean and very soft) 0:00-0:15
e|--------------------------------------------------------------------|
B|--------------------------------------------------------------------|
G|9-9-9-9-9-9-9-5-5-5-5-5-5-5-5-5-12-12-12-12-12-12-12----------7-----|
D|9-9-9-9-9-9-9-5-5-5-5-5-5-5-5-5-12-12-12-12-12-12-12-4/5--5h7-------| X2
A|7-7-7-7-7-7-7-3-3-3-3-3-3-3-3-3-10-10-10-10-10-10-10----------------|
E|--------------------------------------------------------------------|
  . .   . .   .   . .   . . .   . .  .     .  .     .

  Acoustic Guitar 0:07-0:23
  E               C               G               D 
e|0-0-0-0-0-0-0---0-0-0-0-0-0-0---3-3-3-3-3-3-3---2-2-2-2-2-2-2-------|
B|0-0-0-0-0-0-0---1-1-1-1-1-1-1---0-0-0-0-0-0-0---3-3-3-3-3-3-3-------|
G|1-1-1-1-1-1-1---0-0-0-0-0-0-0---0-0-0-0-0-0-0---2-2-2-2-2-2-2-------|
D|2-2-2-2-2-2-2---2-2-2-2-2-2-2---0-0-0-0-0-0-0---0-0-0-0-0-0-0-------| X2
A|2-2-2-2-2-2-2---3-3-3-3-3-3-3---2-2-2-2-2-2-2---0-0-0-0-0-0-0-------|
E|0-0-0-0-0-0-0---0-0-0-0-0-0-0---3-3-3-3-3-3-3---0-0-0-0-0-0-0-------|
 
  Guitar 2 (Distortion) 0:15-0:23
e|--------------------------------------------------------------------|
B|--------------------------------------------------------------------|
G|--------------5-5-5-5-5-5-5-5-5---------------7-7-7-7-7-7-7-7-------|
D|2-2-2-2-2-2-2-5-5-5-5-5-5-5-5-5-5-5-5-5-5-5-5-7-7-7-7-7-7-7-7-------|
A|2-2-2-2-2-2-2-3-3-3-3-3-3-3-3-3-5-5-5-5-5-5-5-5-5-5-5-5-5-5-5-------|
E|0-0-0-0-0-0-0-------------------3-3-3-3-3-3-3-----------------------|

  VERSE 0:22-0:52

  Guitar 1 (Lead) Listen to song for this part
e|-------------------------------------------------------------------------|
B|--------15-------------15---------------------------15------15------15---|
G|---12h14----------12h14------------11-11-12-12-12-12---12h14---12h14-----|
D|-------------------------------------------------------------------------|
A|-------------------------------------------------------------------------|
E|-------------------------------------------------------------------------|

e|-------------------------------------------------------------------------|
B|-------------------15-15-15-15-15-15-15-15-15----------------------------|
G|-11-11-11-12-12-12-------------------------------------------------------|
D|-------------------------------------------------------------------------|
A|-------------------------------------------------------------------------|
E|-------------------------------------------------------------------------|
 
  Guitar 2 (Clean and very soft)
e|--------------------------------------------------------------------|
B|--------------------------------------------------------------------|
G|9-9-9-9-9-9-9-5-5-5-5-5-5-5-5-5-12-12-12-12-12-12-12----------7-----|
D|9-9-9-9-9-9-9-5-5-5-5-5-5-5-5-5-12-12-12-12-12-12-12-4/5--5h7-------| X2
A|7-7-7-7-7-7-7-3-3-3-3-3-3-3-3-3-10-10-10-10-10-10-10----------------|
E|--------------------------------------------------------------------|
  . .   . .   .   . .   . . .   . .  .     .  .     .

e|--------------------------------------------------------------------|
B|--------------------------------------------------------------------|
G|9-9-9-9-9-9-9-5-5-5-5-5-5-5-5-5---------------5-5-5-5-5-5-5-5-5-----|
D|9-9-9-9-9-9-9-5-5-5-5-5-5-5-5-5-5-5-5-5-5-5-5-5-5-5-5-5-5-5-5-5-----|
A|7-7-7-7-7-7-7-3-3-3-3-3-3-3-3-3-5-5-5-5-5-5-5-5-5-5-5-5-5-5-5-5-----|
E|--------------------------------3-3-3-3-3-3-3-----------------------|
  . .   . .   .   . .   . . .   . . .   . .   .   . .   . . .   .

  Switch to distortion at end of verse 
e|-------------------------------------------------------------------------|
B|-------------------------------------------------------------------------|
G|9-9-9-9-9-9-9-5-5-5-5-5-5-5-5-5-12-12-12-12-12-12-12-12-12-12-12-12-12-12|
D|9-9-9-9-9-9-9-5-5-5-5-5-5-5-5-5-12-12-12-12-12-12-12-12-12-12-12-12-12-12|
A|7-7-7-7-7-7-7-3-3-3-3-3-3-3-3-3-10-10-10-10-10-10-10-10-10-10-10-10-10-10|
E|-------------------------------------------------------------------------|
  . .   . .   .   . .   . . .   . .  .     .  .     .

  CHORUS 0:52-1:08

  Guitar 1 (Clean) and Guitar 2 (Distortion)
e|--------------------------------------------------------------------|
B|--------------------------------------------------------------------|
G|----------------7-7-7-7-7-7-7-7-9-9-9-9-9-9-9-9-5-5-5-5-5-5-5-------|
D|5-5-5-5-5-5-5-5-7-7-7-7-7-7-7-7-9-9-9-9-9-9-9-9-5-5-5-5-5-5-5-------|
A|5-5-5-5-5-5-5-5-5-5-5-5-5-5-5-5-7-7-7-7-7-7-7-7-3-3-3-3-3-3-3-------|
E|3-3-3-3-3-3-3-3-----------------------------------------------------|

e|--------------------------------------------------------------------|
B|--------------------------------------------------------------------|
G|----------------7-7-7-7-7-7-7-7-5-5-5-5---5-5~----------------------|
D|5-5-5-5-5-5-5-5-7-7-7-7-7-7-7-7-5-5-5-5---5-5~----------------------|
A|5-5-5-5-5-5-5-5-5-5-5-5-5-5-5-5-3-3-3-3---3-5~----------------------|
E|3-3-3-3-3-3-3-3-----------------------------------------------------|
                                      .     .

  Acoustic Guitar 
  G               D               E               C
e|3-3-3-3-3-3-3---2-2-2-2-2-2-2---0-0-0-0-0-0-0---0-0-0-0-0-0-0-------|
B|0-0-0-0-0-0-0---3-3-3-3-3-3-3---0-0-0-0-0-0-0---1-1-1-1-1-1-1-------|
G|0-0-0-0-0-0-0---2-2-2-2-2-2-2---1-1-1-1-1-1-1---0-0-0-0-0-0-0-------|
D|0-0-0-0-0-0-0---0-0-0-0-0-0-0---2-2-2-2-2-2-2---2-2-2-2-2-2-2-------|
A|2-2-2-2-2-2-2---0-0-0-0-0-0-0---2-2-2-2-2-2-2---3-3-3-3-3-3-3-------|
E|3-3-3-3-3-3-3---0-0-0-0-0-0-0---0-0-0-0-0-0-0---0-0-0-0-0-0-0-------|
  
  G               D               C               
e|3-3-3-3-3-3-3---2-2-2-2-2-2-2---0-0-0-0---0-0~----------------------|
B|0-0-0-0-0-0-0---3-3-3-3-3-3-3---1-1-1-1---1-1~----------------------|
G|0-0-0-0-0-0-0---2-2-2-2-2-2-2---0-0-0-0---0-0~----------------------|
D|0-0-0-0-0-0-0---0-0-0-0-0-0-0---2-2-2-2---2-2~----------------------|
A|2-2-2-2-2-2-2---0-0-0-0-0-0-0---3-3-3-3---3-3~----------------------|
E|3-3-3-3-3-3-3---0-0-0-0-0-0-0---0-0-0-0---0-0~----------------------|
                                      .     .

  PRE VERSE 1:08-1:16

  Guitar 1 (Lead)
e|--------------------------------------------------------------------|
B|------15------------------------------------------------------------|
G|12--12---12-14-14-14-14h16-14-12-12---------------------------------|
D|--------------------------------------------------------------------| X2
A|--------------------------------------------------------------------|
E|--------------------------------------------------------------------|

   Guitar 2 (Distortion)
e|--------------------------------------------------------------------|
B|--------------------------------------------------------------------|
G|--------------5-5-5-5-5-5-5-5-5---------------7-7-7-7-7-7-7-7-------|
D|2-2-2-2-2-2-2-5-5-5-5-5-5-5-5-5-5-5-5-5-5-5-5-7-7-7-7-7-7-7-7-------|
A|2-2-2-2-2-2-2-3-3-3-3-3-3-3-3-3-5-5-5-5-5-5-5-5-5-5-5-5-5-5-5-------|
E|0-0-0-0-0-0-0-------------------3-3-3-3-3-3-3-----------------------|

  2ND VERSE 1:16-1:46

  Guitar 1 (Lead)
e|-------------------------------------------------------------------------|
B|--------15--------15----------------------15------15------15-------------|
G|---12h14-----12h14-------------11-11-12-12---12h14---12h14---------------|
D|-------------------------------------------------------------------------|
A|-------------------------------------------------------------------------|
E|-------------------------------------------------------------------------|

e|-------------------------------------------------------------------------|
B|------------------15-15-15-15------------------15-15-15-15-15-15-15-15-15|
G|-11-11-11-12-12-12------------11-11-11-12-12-12--------------------------|
D|-------------------------------------------------------------------------|
A|-------------------------------------------------------------------------|
E|-------------------------------------------------------------------------|

  Guitar 2 (Clean and very soft)
e|--------------------------------------------------------------------|
B|--------------------------------------------------------------------|
G|9-9-9-9-9-9-9-5-5-5-5-5-5-5-5-5-12-12-12-12-12-12-12----------7-----|
D|9-9-9-9-9-9-9-5-5-5-5-5-5-5-5-5-12-12-12-12-12-12-12-4/5--5h7-------| X2
A|7-7-7-7-7-7-7-3-3-3-3-3-3-3-3-3-10-10-10-10-10-10-10----------------|
E|--------------------------------------------------------------------|
  . .   . .   .   . .   . . .   . .  .     .  .     .

e|--------------------------------------------------------------------|
B|--------------------------------------------------------------------|
G|9-9-9-9-9-9-9-5-5-5-5-5-5-5-5-5---------------5-5-5-5-5-5-5-5-5-----|
D|9-9-9-9-9-9-9-5-5-5-5-5-5-5-5-5-5-5-5-5-5-5-5-5-5-5-5-5-5-5-5-5-----|
A|7-7-7-7-7-7-7-3-3-3-3-3-3-3-3-3-5-5-5-5-5-5-5-3-3-3-3-3-3-3-3-3-----|
E|--------------------------------3-3-3-3-3-3-3-----------------------|
  . .   . .   .   . .   . . .   . . .   . .   .   . .   . . .   .

  Switch to distortion at end of verse 
e|-------------------------------------------------------------------------|
B|-------------------------------------------------------------------------|
G|9-9-9-9-9-9-9-5-5-5-5-5-5-5-5-5-12-12-12-12-12-12-12-12-12-12-12-12-12-12|
D|9-9-9-9-9-9-9-5-5-5-5-5-5-5-5-5-12-12-12-12-12-12-12-12-12-12-12-12-12-12|
A|7-7-7-7-7-7-7-3-3-3-3-3-3-3-3-3-10-10-10-10-10-10-10-10-10-10-10-10-10-10|
E|-------------------------------------------------------------------------|
  . .   . .   .   . .   . . .   . .  .     .  .     .

  2ND CHORUS 1:46-2:02

  Guitar 1 (Clean) and Guitar 2 (Distortion)
e|--------------------------------------------------------------------|
B|--------------------------------------------------------------------|
G|----------------7-7-7-7-7-7-7-7-9-9-9-9-9-9-9-9-5-5-5-5-5-5-5-------|
D|5-5-5-5-5-5-5-5-7-7-7-7-7-7-7-7-9-9-9-9-9-9-9-9-5-5-5-5-5-5-5-------|
A|5-5-5-5-5-5-5-5-5-5-5-5-5-5-5-5-7-7-7-7-7-7-7-7-3-3-3-3-3-3-3-------|
E|3-3-3-3-3-3-3-3-----------------------------------------------------|

e|--------------------------------------------------------------------|
B|--------------------------------------------------------------------|
G|----------------7-7-7-7-7-7-7-7-5-5-5-5---5-5~----------------------|
D|5-5-5-5-5-5-5-5-7-7-7-7-7-7-7-7-5-5-5-5---5-5~----------------------|
A|5-5-5-5-5-5-5-5-5-5-5-5-5-5-5-5-3-3-3-3---3-5~----------------------|
E|3-3-3-3-3-3-3-3-----------------------------------------------------|
                                      .     .

  Acoustic Guitar 
  G               D               E               C
e|3-3-3-3-3-3-3---2-2-2-2-2-2-2---0-0-0-0-0-0-0---0-0-0-0-0-0-0-------|
B|0-0-0-0-0-0-0---3-3-3-3-3-3-3---0-0-0-0-0-0-0---1-1-1-1-1-1-1-------|
G|0-0-0-0-0-0-0---2-2-2-2-2-2-2---1-1-1-1-1-1-1---0-0-0-0-0-0-0-------|
D|0-0-0-0-0-0-0---0-0-0-0-0-0-0---2-2-2-2-2-2-2---2-2-2-2-2-2-2-------|
A|2-2-2-2-2-2-2---0-0-0-0-0-0-0---2-2-2-2-2-2-2---3-3-3-3-3-3-3-------|
E|3-3-3-3-3-3-3---0-0-0-0-0-0-0---0-0-0-0-0-0-0---0-0-0-0-0-0-0-------|
  
  G               D               C               
e|3-3-3-3-3-3-3---2-2-2-2-2-2-2---0-0-0-0---0-0~----------------------|
B|0-0-0-0-0-0-0---3-3-3-3-3-3-3---1-1-1-1---1-1~----------------------|
G|0-0-0-0-0-0-0---2-2-2-2-2-2-2---0-0-0-0---0-0~----------------------|
D|0-0-0-0-0-0-0---0-0-0-0-0-0-0---2-2-2-2---2-2~----------------------|
A|2-2-2-2-2-2-2---0-0-0-0-0-0-0---3-3-3-3---3-3~----------------------|
E|3-3-3-3-3-3-3---0-0-0-0-0-0-0---0-0-0-0---0-0~----------------------|
                                      .     .
  SOLO 2:02-2:17

  Guitar 1
e|-------------------------------------------------------------------------|
B|-------------------------------------------------------------------------|
G|--------------7---7/9---12-9-12--14b-12----------------------------------|
D|-8h9p8----7/9---9-----------------------12-------------8/10-9-7--9/12----|
A|-------10-------------------------------------9/10-9-7-------------------|
E|-------------------------------------------------------------------------|

e|--------------------------------------------------------------------|
B|--------------------------------------------------------------------|
G|-------------12/14\12-----------------------------------------------|
D|-12h14p12----------------12h14p12-----------------------------------|
A|--------------------------------------------------------------------|
E|--------------------------------------------------------------------|

  Acoustic Guitar
   G    D    C        G    D    C
e|-3~---2~---0~-------3~---2~---0~------------------------------------|
B|-0~---3~---1~-------0~---3~---1~------------------------------------|
G|-0~---2~---0~-------0~---2~---0~------------------------------------|
D|-0~---0~---2~-------0~---0~---2~------------------------------------|
A|-2~---0~---3~-------2~---0~---3~------------------------------------|
E|-3~---0~---0~-------3~---0~---0~------------------------------------|

  BRIDGE 2:17-2:34

  Guitar 2 (Clean and very soft)
e|--------------------------------------------------------------------|
B|--------------------------------------------------------------------|
G|9-9-9-9-9-9-9-5-5-5-5-5-5-5-5-5-------------------------------------|
D|9-9-9-9-9-9-9-5-5-5-5-5-5-5-5-5-------------------------------------| 
A|7-7-7-7-7-7-7-3-3-3-3-3-3-3-3-3-------------------------------------|
E|--------------------------------------------------------------------|
  . .   . .   .   . .   . . .   . 

e|--------------------------------------------------------------------|
B|--------------------------------------------------------------------|
G|9-9-9-9-9-9-9-5~----------5-5-5~------------------------------------|
D|9-9-9-9-9-9-9-5~----------5-5-5~------------------------------------| 
A|7-7-7-7-7-7-7-3~----------3-3-3~------------------------------------|
E|--------------------------------------------------------------------|
  . .   . .   .   

  3RD CHORUS 2:35-3:21

  Guitar 1 (Clean) and Guitar 2 (Distortion)
e|--------------------------------------------------------------------|
B|--------------------------------------------------------------------|
G|----------------7-7-7-7-7-7-7-7-9-9-9-9-9-9-9-9-5-5-5-5-5-5-5-------|
D|5-5-5-5-5-5-5-5-7-7-7-7-7-7-7-7-9-9-9-9-9-9-9-9-5-5-5-5-5-5-5-------|
A|5-5-5-5-5-5-5-5-5-5-5-5-5-5-5-5-7-7-7-7-7-7-7-7-3-3-3-3-3-3-3-------|
E|3-3-3-3-3-3-3-3-----------------------------------------------------|

e|------------------------------------xxxx-----xxxx-------------------|
B|------------------------------------xxxx-----xxxx-------------------|
G|----------------7-7-7-7-7-7-7-7-5-5-xxxx-5-5-xxxx--5-5-5-5-5-5-5-5-5|
D|5-5-5-5-5-5-5-5-7-7-7-7-7-7-7-7-5-5-xxxx-5-5-xxxx--5-5-5-5-5-5-5-5-5| X2
A|5-5-5-5-5-5-5-5-5-5-5-5-5-5-5-5-3-3-xxxx-3-3-xxxx--3-3-3-3-3-3-3-3-3|
E|3-3-3-3-3-3-3-3---------------------xxxx-----xxxx-------------------|

e|--------------------------------------------------------------------|
B|--------------------------------------------------------------------|
G|----------------7-7-7-7-7-7-7-7-9-9-9-9-9-9-9-9-5-5-5-5-5-5-5-------|
D|5-5-5-5-5-5-5-5-7-7-7-7-7-7-7-7-9-9-9-9-9-9-9-9-5-5-5-5-5-5-5-------|
A|5-5-5-5-5-5-5-5-5-5-5-5-5-5-5-5-7-7-7-7-7-7-7-7-3-3-3-3-3-3-3-------|
E|3-3-3-3-3-3-3-3-----------------------------------------------------|

e|------------------------------------xxxx-----xxxx-------------------|
B|------------------------------------xxxx-----xxxx-------------------|
G|----------------7-7-7-7-7-7-7-7-5-5-xxxx-5-5-xxxx--5~---------------|
D|5-5-5-5-5-5-5-5-7-7-7-7-7-7-7-7-5-5-xxxx-5-5-xxxx--5~---------------| 
A|5-5-5-5-5-5-5-5-5-5-5-5-5-5-5-5-3-3-xxxx-3-3-xxxx--3~---------------|
E|3-3-3-3-3-3-3-3---------------------xxxx-----xxxx-------------------|
                                           

  Acoustic Guitar 
  G               D               E               C
e|3-3-3-3-3-3-3---2-2-2-2-2-2-2---0-0-0-0-0-0-0---0-0-0-0-0-0-0-------|
B|0-0-0-0-0-0-0---3-3-3-3-3-3-3---0-0-0-0-0-0-0---1-1-1-1-1-1-1-------|
G|0-0-0-0-0-0-0---2-2-2-2-2-2-2---1-1-1-1-1-1-1---0-0-0-0-0-0-0-------|
D|0-0-0-0-0-0-0---0-0-0-0-0-0-0---2-2-2-2-2-2-2---2-2-2-2-2-2-2-------|
A|2-2-2-2-2-2-2---0-0-0-0-0-0-0---2-2-2-2-2-2-2---3-3-3-3-3-3-3-------|
E|3-3-3-3-3-3-3---0-0-0-0-0-0-0---0-0-0-0-0-0-0---0-0-0-0-0-0-0-------|
  
  G               D               C               
e|3-3-3-3-3-3-3---2-2-2-2-2-2-2---0-0-xxxx-0-0-xxxx-0-0-0-0-0-0-0-0-0-|
B|0-0-0-0-0-0-0---3-3-3-3-3-3-3---1-1-xxxx-1-1-xxxx-1-1-1-1-1-1-1-1-1-|
G|0-0-0-0-0-0-0---2-2-2-2-2-2-2---0-0-xxxx-0-0-xxxx-0-0-0-0-0-0-0-0-0-|
D|0-0-0-0-0-0-0---0-0-0-0-0-0-0---2-2-xxxx-2-2-xxxx-2-2-2-2-2-2-2-2-2-| X2
A|2-2-2-2-2-2-2---0-0-0-0-0-0-0---3-3-xxxx-3-3-xxxx-3-3-3-3-3-3-3-3-3-|
E|3-3-3-3-3-3-3---0-0-0-0-0-0-0---0-0-xxxx-0-0-xxxx-0-0-0-0-0-0-0-0-0-|
 
  G               D               E               C
e|3-3-3-3-3-3-3---2-2-2-2-2-2-2---0-0-0-0-0-0-0---0-0-0-0-0-0-0-------|
B|0-0-0-0-0-0-0---3-3-3-3-3-3-3---0-0-0-0-0-0-0---1-1-1-1-1-1-1-------|
G|0-0-0-0-0-0-0---2-2-2-2-2-2-2---1-1-1-1-1-1-1---0-0-0-0-0-0-0-------|
D|0-0-0-0-0-0-0---0-0-0-0-0-0-0---2-2-2-2-2-2-2---2-2-2-2-2-2-2-------|
A|2-2-2-2-2-2-2---0-0-0-0-0-0-0---2-2-2-2-2-2-2---3-3-3-3-3-3-3-------|
E|3-3-3-3-3-3-3---0-0-0-0-0-0-0---0-0-0-0-0-0-0---0-0-0-0-0-0-0-------|
  
  G               D               C               
e|3-3-3-3-3-3-3---2-2-2-2-2-2-2---0-0-xxxx-0-0-xxxx-0~----------------|
B|0-0-0-0-0-0-0---3-3-3-3-3-3-3---1-1-xxxx-1-1-xxxx-1~----------------|
G|0-0-0-0-0-0-0---2-2-2-2-2-2-2---0-0-xxxx-0-0-xxxx-0~----------------|
D|0-0-0-0-0-0-0---0-0-0-0-0-0-0---2-2-xxxx-2-2-xxxx-2~----------------| 
A|2-2-2-2-2-2-2---0-0-0-0-0-0-0---3-3-xxxx-3-3-xxxx-3~----------------|
E|3-3-3-3-3-3-3---0-0-0-0-0-0-0---0-0-xxxx-0-0-xxxx-0~----------------|

  OUTRO 3:22-3:45

  Guitar 1 (Lead) 
e|--------------------------------------------------------------------|
B|------15------------------------------------------------------------|
G|12--12---12-14-14-14-14h16-14-12-12---------------------------------|
D|--------------------------------------------------------------------| X4
A|--------------------------------------------------------------------|
E|--------------------------------------------------------------------|

  Guitar 2 (Distortion)
e|--------------------------------------------------------------------|
B|--------------------------------------------------------------------|
G|--------------5-5-5-5-5-5-5-5-5---------------7-7-7-7-7-7-7-7-------|
D|2-2-2-2-2-2-2-5-5-5-5-5-5-5-5-5-5-5-5-5-5-5-5-7-7-7-7-7-7-7-7-------| X2
A|2-2-2-2-2-2-2-3-3-3-3-3-3-3-3-3-5-5-5-5-5-5-5-5-5-5-5-5-5-5-5-------|
E|0-0-0-0-0-0-0-------------------3-3-3-3-3-3-3-----------------------|
  . .   . .   .   . .   . . .   . . .   . .   .   . .   . . .   .

  Acoustic Guitar 
  E               C               G               D 
e|0-0-0-0-0-0-0---0-0-0-0-0-0-0---3-3-3-3-3-3-3---2-2-2-2-2-2-2-------|
B|0-0-0-0-0-0-0---1-1-1-1-1-1-1---0-0-0-0-0-0-0---3-3-3-3-3-3-3-------|
G|1-1-1-1-1-1-1---0-0-0-0-0-0-0---0-0-0-0-0-0-0---2-2-2-2-2-2-2-------|
D|2-2-2-2-2-2-2---2-2-2-2-2-2-2---0-0-0-0-0-0-0---0-0-0-0-0-0-0-------| X2
A|2-2-2-2-2-2-2---3-3-3-3-3-3-3---2-2-2-2-2-2-2---0-0-0-0-0-0-0-------|
E|0-0-0-0-0-0-0---0-0-0-0-0-0-0---3-3-3-3-3-3-3---0-0-0-0-0-0-0-------|

  Guitar 3 (Distortion) Fade in 3:26-3:45
e|--------------------------------------------------------------------|
B|--------------------------------------------------------------------|
G|14-14-14-14-14-14-14-14-12-12-12-12-12-12-12-12---------------------|
D|--------------------------------------------------------------------| X3
A|12-12-12-12-12-12-12-12-10-10-10-10-10-10-10-10---------------------|
E|--------------------------------------------------------------------|

  Guitar 1
e|----------------|
B|----------------|
G|-12~~-----------|
D|----------------|
A|----------------|
E|----------------|

  Guitar 2
e|----------------|
B|----------------|
G|----------------|
D|-5~~------------|
A|-5~~------------|
E|-3~~------------|

  Guitar 3
e|----------------|
B|----------------|
G|-12~~-----------|
D|----------------|
A|-10~~-----------|
E|----------------|

  Acoustic Guitar 
e|-3~~------------|
B|-0~~------------|
G|-0~~------------|
D|-0~~------------|
A|-2~~------------|
E|-3~~------------|

| /  slide up
| \  slide down
| h  hammer-on
| p  pull-off
| b  bend
| ~  vibrato
| x  harmonic
| .  palm mute
============================================================================
Suggest correction
Creating personal tab
Creating personal tab
You can edit any tab online and save it as your Personal.

You can edit, replace or remove any tab part or add personal notes – all changes will be seen only by you.

Personal tabs can be accessed anytime from any device, even offline.
Learn more »
Give kudos to tab author, rate the tab!
1 2 3 4 5
comments
print report bad tab
guest
You may want to rate the tab now too:
select rating
Wanna post a correction for this tab? Suggest correction