Oops, an error
Loading. Please wait.

Take My Hand tab

version 2
version 2

Whole song

Interactive

644 views 3 this week
2 commentsread comments
1 2 3 4 5
x 3
add to favorites
×
Save as Personal and add changes to this tab that will be seen only by you. Learn more ›
×
You can save this tab as Personal to edit and correct it or add notes. All changes will be seen only by you. Learn more »
launch autoscroll
font size
0
reset
how to read this tab
guitar tuner
edit
Autoscroll
slow
fast
+/-
esc
set tempo
stop
Difficulty
Hello sa lahat ng mga tao didto, sana magustohan ninyo ang aking tab kasi first time ko 
magbigay ng tab kaya sana i rate ninyo!! For comments, you can text me at my cellphone 
( kasi ang lakas mo sa GLOBE )

Intro:
2x
e|--------------------------------------------------|
B|---5--7-7-------5-5-------------------------------|
G|-------------7--------6--7-7---4-4-4-4-4----------|
D|--------------------------------------------------|
A|--------------------------------------------------|
E|--------------------------------------------------|
             then,
Intro 2:

guitar 1: distortion

e|--------------------------------------------------|
B|--------------------------------------------------|
G|----77777-----------------------------------------|
D|----77777-----77777-----55555-----77777-----------|
A|----55555-----77777-----55555-----77777-----------|
E|--------------55555-----33333-----55555-----------|

Guitar 2: pakinggan nyo lang ng mabuti yung kanta! Lead ito ng intro hanbang nagstrum

e|--8-10-8-10-8-10-8-10-------------------------------------------------------------------|
B|-----------------------10-12-10-12-10-12-10-12---8-10-8-10-8-10-8-10---10-12-10-12-10-12|
G|----------------------------------------------------------------------------------------|
D|----------------------------------------------------------------------------------------|
A|----------------------------------------------------------------------------------------|
E|----------------------------------------------------------------------------------------|

Paumanhin po kung mali ang pagkatab ko dito dahil hindi ako sure dito! Tapos dito ay 
verse…

Verse 1: You’re sky seem so cloudy...

Guitar 1: Palm mute kayo dito!
e|--------------------------------------------------|
B|--------------------------------------------------|
G|----77777-----------------------------------------|
D|----77777-----77777-----55555-----77777-----------|
A|----55555-----77777-----55555-----77777-----------|
E|--------------55555-----33333-----55555-----------|

Guitar 2:

e|--------10-----------|
B|----10---------------|
G|---------------------|
D|---------------------|
A|---------------------|
E|---------------------|

Pagkatapos ay refrain na!

Refrain: you are not alone...

Guitar 1 at 2:

e|-----------------------------------------| 2x
B|-----------------------------------------|
G|-----------------------------------------|
D|---55555----------77777------------------|
A|---55555----------77777------------------|
E|---33333----------55555------------------|

Nandito na tayo sa chorus!

Chorus: Take my hand... ang guitar 1 at 2 dito!

e|-----------------------------------------------------|  2x
B|-----------------------------------------------------|
G|---77777-----------------44444----------22222--------|
D|---77777-----55555-------44444----------22222--------|
A|---55555-----55555-------22222-----------------------|
E|-------------33333-----------------------------------|

Repeat intro 2 tab

Verse 2: Everything beens bitter...

Guitar 1: Palm mute muli!

e|--------------------------------------------------|
B|--------------------------------------------------|
G|----77777-----------------------------------------|
D|----77777-----77777-----55555-----77777-----------|
A|----55555-----77777-----55555-----77777-----------|
E|--------------55555-----33333-----55555-----------|

Guitar 2:

e|-----10------------------10---------------|
B|--10----10-8-7-8-10—--10----10-8-7-8-10---|
G|------------------------------------------|
D|------------------------------------------|
A|------------------------------------------| pabalik lang yan ng pabalik hanggang
E|------------------------------------------| matapos yung verse 2!

Repeat refrain tab

Adlib:

guitar 1:

e|--------------------------------------------------|
B|--------------------------------------------------|
G|----77777-----------------------------------------|
D|----77777-----77777-----55555-----77777-----------|
A|----55555-----77777-----55555-----77777-----------|
E|--------------55555-----33333-----55555-----------|

Guitar 2:

e|--------------------------------------------------|   2x
B|--7-8-7-5----7-8-7-8s10---------------------------|
G|--------------------------------------------------|
D|--------------------------------------------------|
A|--------------------------------------------------|
E|--------------------------------------------------|
Pagkatapos ng adlib ay ang lahat ay tumahimik maliban sa bass

Bass:
G|----------------------------------------------|
D|----------------------------------------------|
A|--5-5-5-5-------------------------------------|
E|------------5-5-5-5----3-3-3-3----5-5-5-5-----|

Pagkatapos ng bass yung guitar 1 at guitar 2 ay papasok

Guitar 1 at 2: yung guitar 2 lang ang magpalm mute wag na ang guitar 1

e|--------------------------------------------------|
B|--------------------------------------------------|
G|----77777-----------------------------------------|
D|----77777-----77777-----55555-----77777-----------|
A|----55555-----77777-----55555-----77777-----------|
E|--------------55555-----33333-----55555-----------|

Pagkatapos nito balik sa chorus

Chorus: Take my hand...

e|-----------------------------------------------------|  2x
B|-----------------------------------------------------|
G|---77777-----------------44444------22222------7-----|
D|---77777-----55555-------44444------22222------7-----|
A|---55555-----55555-------22222-----------------5-----|
E|-------------33333-----------------------------------|

                     ~end~

Salamat po sa inyo! At hi po sa aking mga kabandmates at kaibigan na si William, Paolo, 
Louie Roca, Murphy way kain, bongsgar, boi, Eunice at si rodine.. SALAMAT!

            
            
Suggest correction
Creating personal tab
Creating personal tab
You can edit any tab online and save it as your Personal.

You can edit, replace or remove any tab part or add personal notes – all changes will be seen only by you.

Personal tabs can be accessed anytime from any device, even offline.
Learn more »
Give kudos to tab author, rate the tab!
1 2 3 4 5
comments
print report bad tab
2 comments total.
0 reply
Rayvier 53 Jan 24, 2007 02:48 AM

try this for the solo:
~ - Vibrato
/ - slide
e|------------------------------------------------------------------|
B|7-8-7-8/10-8-7-8---7-8-7-8/10-8-7-8---7-8-7-5~~--7-8-7-8/10-8-7-8-|
G|------------------------------------------------------------------|
D|------------------------------------------------------------------|
A|------------------------------------------------------------------|
E|------------------------------------------------------------------|

0 reply
Rayvier 53 Jan 24, 2007 02:49 AM

Sorry for double post but I had an error:
~ - Vibrato
/ - slide
e|---------------------------------------------------------------------|
B|7-8-7-8/10-8-7-8---7-8-7-8/10-8-7-8---7-8-7-5~~--7-8-7-8/10-8-7-8/10-|
G|---------------------------------------------------------------------|
D|---------------------------------------------------------------------|
A|---------------------------------------------------------------------|
E|---------------------------------------------------------------------|

guest
Wanna post a correction for this tab? Suggest correction