Oops, an error
Loading. Please wait.

Takipsilim tab

version 2
version 2

Whole song

Interactive

960 views 1 this week
3 commentsread comments
1 2 3 4 5
1 last vote to show rating
add to favorites
×
Save as Personal and add changes to this tab that will be seen only by you. Learn more ›
×
You can save this tab as Personal to edit and correct it or add notes. All changes will be seen only by you. Learn more »
launch autoscroll
font size
0
reset
how to read this tab
guitar tuner
edit
Autoscroll
slow
fast
+/-
esc
set tempo
stop
Author
Song: Takipsilim
Artist: Callalily
Ear Tabber: Elvin Hayes Gentiles
School: Parañaque National High School (DOST)

Update ko po ung sa heartbeat di ko alam kung pang-ilang fret eh.. pero haromnics un..

Intro part 1:
e|-----------|------------|
B|-----------|------------|
G|--6666666--|--44444444--|
D|--7777777--|--66666666--| 2x
A|--7777777--|--66666666--|
E|-----------|------------|
Then......
G|-------|
D|-------|
A|-------|
E|--5/1--|

Intro part 2:
Guitar 1:
e|-----------|------------|
B|-----------|------------|
G|--6666666--|--44444444--|
D|--7777777--|--66666666--| 2x
A|--7777777--|--66666666--|
E|-----------|------------|
Guitar 2:
e|-----------|------------|
B|-----------|------------|
G|-----------|------------|
D|--7~~------|--6~~-------| 2x
A|--7~~------|--6~~-------|
E|--5~~------|--4~~-------|

Verse:
e|-----------|------------|
B|-----------|------------|
G|--6666666--|--44444444--|
D|--7777777--|--66666666--| 4x
A|--7777777--|--66666666--|
E|-----------|------------|

Chorus:
Guitar 1:
e|-----------|------------|     |------------|------|
B|-----------|------------|     |------------|------|
G|--6666666--|--44444444--|     |--22222222--|--4~--|
D|--7777777--|--66666666--| 3x  |--44444444--|--4~--|
A|--7777777--|--66666666--|     |--44444444--|--2~--|
E|-----------|------------|     |------------|------|
Guitar 2:
e|-----------|------------|     |------------|------|
B|-----------|------------|     |------------|------|
G|-----------|------------|     |------------|--4~--|
D|--7~~------|--6~~-------| 3x  |------------|--4~--|
A|--7~~------|--6~~-------|     |------------|--2~--|
E|--5~~------|--4~~-------|     |------------|------|

Interlude:
Guitar 1:
e|-----------|------------|
B|-----------|------------|
G|--6666666--|--44444444--|
D|--7777777--|--66666666--| 2x
A|--7777777--|--66666666--|
E|-----------|------------|
Guitar 2:
e|-----------|------------|
B|-----------|------------|
G|-----------|------------|
D|--7~~------|--6~~-------| 2x
A|--7~~------|--6~~-------|
E|--5~~------|--4~~-------|

Verse:
Guitar 1:
e|-----------|------------|
B|-----------|------------|
G|--6666666--|--44444444--|
D|--7777777--|--66666666--| 4x
A|--7777777--|--66666666--|
E|-----------|------------|
Guitar 2:
(plays in the 1st,3rd and 4th round)
e|-------|-----|
B|-------|-----|
G|-------|-----|
D|--7~~--|-----|
A|--7~~--|-----|
E|--5~~--|-----|   

Chorus:
Guitar 1:
e|-----------|------------|     |------------|------|
B|-----------|------------|     |------------|------|
G|--6666666--|--44444444--|     |--22222222--|--4~--|
D|--7777777--|--66666666--| 3x  |--44444444--|--4~--|
A|--7777777--|--66666666--|     |--44444444--|--2~--|
E|-----------|------------|     |------------|------|
Guitar 2:
e|-----------|------------|     |------------|------|
B|-----------|------------|     |------------|------|
G|-----------|------------|     |------------|--4~--|
D|--7~~------|--6~~-------| 3x  |--44444444--|--4~--|
A|--7~~------|--6~~-------|     |--44444444--|--2~--|
E|--5~~------|--4~~-------|     |--22222222--|------|
Guitar 3:
                                End here:
e|--5-4---|                     |--5~--|
B|-----5--|                     |------|
G|--------| repeat many times   |------|
D|--------| hanggang matapos    |------|
A|--------| ang chorus          |------|
E|--------|                     |------|

Adlib:
Guitar 1:
e|------------|------------|
B|------------|------------|
G|------------|------------|
D|--77777777--|--66666666--| 2x
A|--77777777--|--66666666--|
E|--55555555--|--44444444--|
Guitar 2:
e|--------------------------------------|
B|--------------------------------------|
G|--5555/7777/9999/1010\9999--44444444--|
D|--xxxx/xxxx/xxxx/x-x-\xxxx--xxxxxxxx--| 2x
A|--3333/5555/7777/8-8-\7777--22222222--|
E|--------------------------------------|

Bridge:
Guitar 1:
e|------------|------------|    |------------|------|
B|------------|------------|    |------------|------|
G|------------|------------|    |------------|--4~--|
D|--44444444--|--66666666--| 3x |--44444444--|--4~--|
A|--44444444--|--66666666--|    |--44444444--|--2~--|
E|--22222222--|--44444444--|    |--22222222--|------|
Guitar 2:
                                End here:
e|--5-4---|                     |--5~--|
B|-----5--|                     |------|
G|--------| repeat many times   |------|
D|--------| hanggang matapos    |------|
A|--------| ang chorus          |------|
E|--------|                     |------|

Interlude:
Guitar 1:
e|-----------|------------|
B|-----------|------------|
G|--6666666--|--44444444--|
D|--7777777--|--66666666--| 2x
A|--7777777--|--66666666--|
E|-----------|------------|
Guitar 2:
e|-----------|------------|
B|-----------|------------|
G|-----------|------------|
D|--7~~------|--6~~-------| 2x
A|--7~~------|--6~~-------|
E|--5~~------|--4~~-------|

Chorus: 
e|----0-----0-----|----0-----0---|     |----0-----0--|-------------|
B|------0---------|------0-------|     |------0------|-------------|
G|--6-------------|--4-----------|     |--6----------|-------------|
D|--7-------------|--6-----------| 2x  |--7----------|-------------|
A|--7-----7-------|--6-----6-----|     |--7-----7----|-------------|
E|----------------|--------------|     |-------------|-------------|
(continued)   
e|------------|------------|
B|------------|------------|
G|--22222222--|--44444444--|
D|--44444444--|--44444444--|
A|--44444444--|--22222222--|
E|------------|------------|

Then...... Huwag kang agawin sa akin...
Guitar 1:
e|------------|------------|    |------------|------|
B|------------|------------|    |------------|------|
G|------------|------------|    |------------|------|
D|--44444444--|--66666666--| 3x |--44444444--|--6~--|
A|--44444444--|--66666666--|    |--44444444--|--6~--|
E|--22222222--|--44444444--|    |--22222222--|--4---|
(continued)
e|------------|------|
B|------------|------|
G|--2~~-------|--4~--|
D|--4~~-------|--4~--|
A|--4~~-------|--2~--|
E|------------|------|
Guitar 2:
e|--------------------------------------|
B|--------------------------------------|
G|--5555/7777/9999/1010\9999--44444444--|
D|--xxxx/xxxx/xxxx/x-x-\xxxx--xxxxxxxx--| 4x
A|--3333/5555/7777/8-8-\7777--22222222--|
E|--------------------------------------|

Outro part 1:
Guitar 1:
e|-----------|------------|
B|-----------|------------|
G|--6666666--|--44444444--|
D|--7777777--|--66666666--| 2x
A|--7777777--|--66666666--|
E|-----------|------------|
Guitar 2:
e|-----------|------------|
B|-----------|------------|
G|-----------|------------|
D|--7~~------|--6~~-------| 2x
A|--7~~------|--6~~-------|
E|--5~~------|--4~~-------|

Outro part 2:
Heartbeat..... Then...
e|-----------------------------------|-----------------------------------|
B|------8-----8-----8-----8-----8----|------8-----8-----8-----8-----8----|
G|----7---7-----7-----7-----7-----7--|----7---7-----7-----7-----7-----7--|
D|--5-------5-----5-----5-----5------|--4-------5-----5-----5-----5------|
A|-----------------------------------|-----------------------------------|
E|-----------------------------------|-----------------------------------|
(continued)
e|-----------------------------------|-----------------------------------|
B|------8-----8-----8-----8-----8----|-----------------------------------|
G|----7---7-----7-----7-----7-----7--|--5---5-4---4----5---5-4---5-------|
D|-----------------------------------|----5-----5---5----5-----5---5-----| 2x
A|--7-------7-----7-----7-----7------|-----------------------------------|
E|-----------------------------------|-----------------------------------|

enjoy....

            
            
Suggest correction
Creating personal tab
Creating personal tab
You can edit any tab online and save it as your Personal.

You can edit, replace or remove any tab part or add personal notes – all changes will be seen only by you.

Personal tabs can be accessed anytime from any device, even offline.
Learn more »
Give kudos to tab author, rate the tab!
1 2 3 4 5
comments
print report bad tab
3 comments total.
0 reply
paul21 618 Apr 12, 2007 05:12 AM

e|---------
B|--[5]---- artificial harmonics yung sunod
G|--------- sunod ah...
D|---------
A|---------
E|---------

0 reply
rockingson 10 May 11, 2007 10:40 PM

kuya parang mali ung outro!! heheheh!!

0 reply
June Robert 412 Oct 25, 2007 02:56 AM

Update ko po ung sa heartbeat di ko alam kung pang-ilang fret eh.. pero haromnics un..


e|--19-----|
B|---------| natural harmonic
G|---------|
D|---------|
A|---------|
E|---------|


NOT SURE...

guest
You may want to rate the tab now too:
select rating
Wanna post a correction for this tab? Suggest correction