Oops, an error
Loading. Please wait.

Esperanza chords

36 views 1 this week
no commentswrite comment
1 2 3 4 5
3 more votes to show rating
add to favorites
×
Save as Personal and add changes to this tab that will be seen only by you. Learn more ›
×
You can save this tab as Personal to edit and correct it or add notes. All changes will be seen only by you. Learn more »
launch autoscroll
font size
0
reset
transpose
0
reset
display chords
guitar tuner
edit
Autoscroll
slow
fast
+/-
esc
set tempo
stop
Strumming
There is no strumming pattern for this song yet. and get +5 IQ
INTRO: G B C D x2
SKA: G B C D x2

G      B          C               D
Esperanza adonde vas que ya no te veo
G      B              C               D
Esperanza porque me dejas si yo no te vendo

CORO:
        G             B
No me importa si sos fea 
     C          D
o te huelen los pies
       G           B
lo que quiero es amarte
         C            D
sea al derecho o al reves
     G            B
el vecino ya me a dicho 
         C      D
que me aleje de vos
       G          B
cuando fui de serenata 
      C           D
nos echaron a los dos.

 G     B            C                    D
Esperanza vamos a hablar algo que sea sincero
 G     B           C                        D
Esperanza yo soy igual no me señales con el dedo

CORO: (igual que el coro anterior)

Cuando veo en tus ojos
veo en tu corazon
como pasan los minutos
y se muere la ilusion
si me das la cachetada
yo te devuelvo el puñal
si me marcho de este cuarto
es pa´no verte nunca mas

SOLO DE TROMPETA

SOLO:

e-------------------------------7-8-7-------------
B-------8---/10-8-7------7-8-10-------10----------
G---7-9-------------7--9--------------------------
D-------------------------------------------------
A-------------------------------------------------
E-------------------------------------------------

e----12-14-15--15-14-12---------------------------
B--15-------------------15-13-12------------------
G--------------------------------14-12-11-12-11---
D-------------------------------------------------
A-------------------------------------------------
E-------------------------------------------------

e-------------------------------------------------
B-----------12-13-12---------------12--------12---
G--11--12-14--------14-12-11--12-14--14-12-14--14-
D-------------------------------------------------
A-------------------------------------------------
E-------------------------------------------------

e--------------------------------------------12-14-15-
B--151515-151515-131313-12-12/13-----12-13-15---------
G-------------------------------12/14-----------------
D-----------------------------------------------------
A-----------------------------------------------------
E-----------------------------------------------------

e-15-14-12--------------------------------------------
B---------15-13-12-----------------------12-13--------
G-----------------14-12-11/12-11-11-12-14-------------
D-----------------------------------------------------
A-----------------------------------------------------
E-----------------------------------------------------

e-----------------------------------------------------
B---15-13-12------------------------------------------
G-----------14-12/11-12/11-12/0-----------------------
D-----------------------------------------------------
A-----------------------------------------------------
E-----------------------------------------------------

CORO:

No me importa si sos fea o te huelen los pies
lo que quiero es amarte sea al derecho o al reves
el vecino ya me a dicho que me aleje de vos
cuando fui de serenata nos echaron a los dos
cuando veo en tus ojos veo en tu corazon
como pasan los minutos y se muere la ilusion
si me das la cachetada yo te devuelvo el puñal
si me marcho de este cuarto es pa´no verte nunca mas


ESTO ES TODO 
APOYA AL ROCK TICO!!!!!!
Suggest correction
Creating personal tab
Creating personal tab
You can edit any tab online and save it as your Personal.

You can edit, replace or remove any tab part or add personal notes – all changes will be seen only by you.

Personal tabs can be accessed anytime from any device, even offline.
Learn more »
Give kudos to tab author, rate the tab!
1 2 3 4 5
comments
print report bad tab
guest
Wanna post a correction for this tab? Suggest correction