Oops, an error
Loading. Please wait.

Acordate tab

95 views 1 this week
no commentswrite comment
1 2 3 4 5
3 more votes to show rating
add to favorites
×
Save as Personal and add changes to this tab that will be seen only by you. Learn more ›
×
You can save this tab as Personal to edit and correct it or add notes. All changes will be seen only by you. Learn more »
launch autoscroll
font size
0
reset
how to read this tab
guitar tuner
edit
Autoscroll
slow
fast
+/-
esc
set tempo
stop
Hola, esta tablatura es lo que se
hace con el Saxo, yo lo saqué con guitarra.


La intro y los versos de la canción:
     x3
E|-----------|-------------|-----------------------------|
B|-3-2-0-----|-------------|-------------5--7---5-5h7-5--|
G|-------2-1-|1-1-2-4--4---|4-4-6--6-6-----------------6-|
D|-----------|-------------|-----------------------------|
A|-----------|-------------|-----------------------------|
E|-----------|-------------|-----------------------------|

     x3
E|-----------|-------------|---------------------------------|
B|-3-2-0-----|-------------|-12-12----11-12--14h15-14--11-12-|
G|-------2-1-|1-1-2-4--4---|---------------------------------|
D|-----------|-------------|---------------------------------|
A|-----------|-------------|---------------------------------|
E|-----------|-------------|---------------------------------|


E|------------------------------------|
B|-11-9--7---6-7--9---11---11-9-11-12-|
G|------------------------------------|
D|------------------------------------|
A|------------------------------------|
E|------------------------------------|

E|--------------------------------------------------|
B|-12-12-12p11p9-12--12--12---11-12-15-14-12-11-12--|
G|--------------------------------------------------|
D|--------------------------------------------------|
A|--------------------------------------------------|
E|--------------------------------------------------|
*********************************

ESTRIBILLO:

Acordate de donde saliste...

E|-2h3---5--0|-2h3---0h2-0----|
B|-----------|-------------3--|
G|-----------|----------------|
D|-----------|----------------|
A|-----------|----------------|
E|-----------|----------------|

Acordate de como llegaste y a costillas de quién...

E|-3-5---3h5-3---5-7--|
B|--------------------|
G|--------------------|
D|--------------------|
A|--------------------|
E|--------------------|

*********************************
Después se hace todo de vuelta y sigue esto:


Escuchar al que quiera escuchar...

E|-5--7---9h10-9---7h9--7-5---5h7-5--3-5-3-1|
B|------------------------------------------|
G|------------------------------------------|
D|------------------------------------------|
A|------------------------------------------|
E|------------------------------------------|

La única realeza es la realidad...
E|-9h10-9---7h9-7-5---7p5------------------|
B|------------------------7---10---12-10-9-|
G|-----------------------------------------|
D|-----------------------------------------|
A|-----------------------------------------|
E|-----------------------------------------|

E|-------------------------------------|
B|-10h12-10-8-10s12---10-9-7---6-8-6---|
G|-----------------------------------7-|
D|-------------------------------------|
A|-------------------------------------|
E|-------------------------------------|
Este arreglo casi que ni se escucha, presten mucha
atención antes de que empiece la intro otra vez.

B|-7-7-7-7-7-|

Así termina:
B|14----14h15-14--11-11h12|

*********************************

Espero que les sirva, no se olviden de dejar puntos!

Aguante Las Flores!
Suggest correction
Creating personal tab
Creating personal tab
You can edit any tab online and save it as your Personal.

You can edit, replace or remove any tab part or add personal notes – all changes will be seen only by you.

Personal tabs can be accessed anytime from any device, even offline.
Learn more »
Give kudos to tab author, rate the tab!
1 2 3 4 5
comments
print report bad tab
guest
Wanna post a correction for this tab? Suggest correction